Song name
# A B C D E F G H I J K L M N O P Q R S T U V W X Y Z

Misc Unsigned Bands - The Krivosk - Broken tab

Help us improve GuitareTab! Take a short survey!
Standard Tuning Played at 120 BPM An effect in the sort of way Walk has

E----------------------------------------------------------------------|
B----------------------------------------------------------------------|
G----------------------------------------------------------------------|
D----------------------------------------------------------------------|
A---9-9-999-5-5-555-7-7-777-3-3-333-5-5-555-79757532-79757532----------|
E---7-7-777-3-3-333-5-5-555-1-1-111-3-3-333-79757532-79757532----------|

X 4

E---12-13-16-13-12-13-16-13-12-13-16-13-12--|
B-------------------------------------------|
G-------------------------------------------|
D-------------------------------------------|
A-------------------------------------------|
E-------------------------------------------|

E---13-14-17-14-13-14-17-14-13-14-17-14-13--|
B-------------------------------------------|
G-------------------------------------------|
D-------------------------------------------|
A-------------------------------------------|
E-------------------------------------------|

E---15-16-19-16-15-16-19-16-15-16-19-16-15--|
B-------------------------------------------|
G-------------------------------------------|
D-------------------------------------------|
A-------------------------------------------|
E-------------------------------------------|

E---17-18-21-18-17-18-21-18-17-18-21-18-17--|
B-------------------------------------------|
G-------------------------------------------|
D-------------------------------------------|
A-------------------------------------------|
E-------------------------------------------|

Then repeat all 5 times then end with

E---------------------1-4-------------------------------------1-4------|
B-----------------1-4-----1-4-----------------------------1-4----------|
G-------------1-4-------------1-4---------------------1-4--------------|
D---------1-4---------------------1-4-------------1-4------------------|
A-----1-4-----------------------------1-4-----1-4----------------------|
E-1-4-------------------------------------1-4--------------------------|
Related for The Krivosk - Broken tab