Song name
# A B C D E F G H I J K L M N O P Q R S T U V W X Y Z

Misc Unsigned Bands - Not In Public - Cmon Baby Now tab

|---------|Play Twice--VERSE------------------------------------|
|---------|-----------------------------------------------------|
|---------|-----------------------------------------------------|
|---------|-----------------------------------------------------|
|--7~~~---|--7-7-7-7-9-8-7---5-5-5-5-7-6-5----------------------|
|--5~~~---|--5-5-5-5-7-6-5---3-3-3-3-5-4-3----------------------|

|BRIDGE--------------|-----Chorus x2----------------------------|
|--------------------|------------------------------------------|
|--------------------|------------------------------------------|
|--------------------|-------9--11------------------------------|
|-7-8-9/--5-6-7/-----|-7-7---7--9--9-9-7-7----------------------|
|-5-6-7/--3-4-5/--x2-|-5-5--0--0---7-7-5-5----------------------|

|SOLO----------------------------------------------------------|
|----12------------------------------------12-15---12-15-------|
|----14^------14-12--12-14^-12h14p12h14-14^-----14^------------|
|-------14~-14-----14------------------------------------------|
|--------------------------------------------------------------|
|--------------------------------------------------------------|

|---------12h15h12 15^-----------------------------------------|
|-12h15p12-----------------------------------------------------|
|--------------------------------------------------------------|
|--------------------------------------------------------------|
|--------------------------------------------------------------|
|--------------------------------------------------------------|
I Forget Most of the Solo even though I wrote it, but the rest is guaranteed accurate
Tap to rate this tab
# A B C D E F G H I J K L M N O P Q R S T U V W X Y Z