Song name
# A B C D E F G H I J K L M N O P Q R S T U V W X Y Z

Misc Unsigned Bands - Hear No Evil - Today tab

Help us improve GuitareTab! Take a short survey!
Intro
e -----------------------------------------|
B -----------------------------------------|
G -----------------------------------------|
D -----------------------------------------|
A -4--2--7--11-----------------------------|
E -2--0--5--9------------------------------|    Play 4x in clean, then go to distortion 4X

  Verse
e -----------------------------------------|
B -----------------------------------------|
G -----------------------------------------|
D -----------------------------------------|
A ---4---4---4---4---2--2---5---5----------|
E -2---2---2---2---0---0---3---3-----------|

Chorus
e -----------------------------------------|
B -----------------------------------------|
G -----------------------------------------|
D -----------------------------------------|
A -4--7--6--7--6--0------------------------|
E -2--5--4--5--4--0------------------------|
Related for Hear No Evil - Today tab