Song name
# A B C D E F G H I J K L M N O P Q R S T U V W X Y Z

Misc Unsigned Bands - The Surrenders - Back Down tab

The Surrenders- Back Down
I know I put this tab down for the Intro, but I have allot more then that, yet not the 
song. Well, here's what I got! Enjoy!
Tuning: EADGBe(Standard)

Intro:
E-----------------------------------------------------------------------|
B-----------------------------------------------------------------------|
G-----------------------------------------------------------------------|
D-------------------------------5p3-------------------------------------|
A----------------------------------3h5br~-------------------------------|
E-0-3h5-0-3h5-0-3h5-0-3h5-0-3h5-----------0-3h5-0-3h5-0-3h5-0-3h5-0-3h5-|

D-5p3---------|
A----3/5b7r5~-|
E-------------|

Verse:
PM-----------       PM---------------------------------------|
E----------------------------------------------------------0-|
B----------------------------------------------------------0-|
G------------------------------------------------------------|
D-2-x-2-x-2-x-4p2p0---5-x-5-x-5-x-7p5p3---2/4b6r4------------|
A-2-x-2-x-2-x------2~-5-x-5-x-5-x------5~--------6\4---------|
E-0-x-0-x-0-x---------x-x-x-x-x-x-------------------0-3h5~---|
                                                    .
Chorus is same as intro!

And, sadly, thats all I have. I do hope this gets approved, though. I would really appreciate  it!

Tabbed by Black Amendment
Tap to rate this tab
 
# A B C D E F G H I J K L M N O P Q R S T U V W X Y Z