Song name
# A B C D E F G H I J K L M N O P Q R S T U V W X Y Z

Misc Unsigned Bands - Horkyze Slize - Liza A Wendy tab

 |               |               |               |                
|----------------------------------------------------------------|
|----------------------------------------------------------------|
|----------------------------------------------------------------|
|4---------------5---------------7---------------7---------------|
|2----x6---------5----x6---------5----x6---------7----x6---------|
|2---------------3---------------5---------------5---------------|
 
 |               |               |               |                
|----------------------------------------------------------------|
|----------------------------------------------------------------|
|----------------------------------------------------------------|
|--------4-----------5-------------------7---------------7-------|  x2
|----2-----------5-------5-----------5---------------7-------7---|
|2-----------3-------------------5---------------5---------------|

Play it once and you'll know the rythm and everything

mfg Daznerus
Tap to rate this tab
# A B C D E F G H I J K L M N O P Q R S T U V W X Y Z