Song name
# A B C D E F G H I J K L M N O P Q R S T U V W X Y Z

Misc Unsigned Bands - Risen To Fallen - A Lonley Patience tab

          Risen To Fallen
         A Lonley Patience

O.K. I made this tab. You might not know this song, but it is a really good song to
if you like slow things!!!! :) Anyway noone probably knows this band, but i found them on
This song is not on limewire or ITunes or whatever. The only way to find this song is to 
to their myspace, which is  www.myspace.com/risentofallen002002 and go to A Lonley
on their music table.. any way here are the Chords (btw this song is all chords exept 
the solo which i will show you too)
There Are No Lyrics

 Here is the Rhythm Guitar the whole way through, C G C Em | C G D--X4

 Now for the Lead Guitar, He Does, C G C Em | C G D--X1

now for the solos(the solos are while the the C G C Em | C G D--X4 is going on


Solo #1

-----------------------------------------------------------------------|
13-13-13-15-11-------13-13-13-13-15-----13-13-13-13-15-11~-------------|
---------------12-12-----------------12--------------------12-12-------|
-----------------------------------------------------------------------|
-----------------------------------------------------------------------|
-----------------------------------------------------------------------|


-----------------------------------------------------------------------|
-----------------------------------------------------------------------|
14-12-14h16-14-14~~--12-14-12-14h16-14-14~~----------------------------|
-----------------------------------------------------------------------|
-----------------------------------------------------------------------|
-----------------------------------------------------------------------|


Solo #2

-----------------------------------------------------------------------|
12-12-12-12--------------12-12-12-12---------12-12-12-12---------------|
------------14-12--------------------14------------------14-12---------|
------------------12-12~~---------------12~~-------------------12------|
-----------------------------------------------------------------------|
-----------------------------------------------------------------------|


-----------------------------------------------------------------------|
-----------------------------------------------------------------------|
-----------------------------------------------------------------------|
12h13h14-14-14h15p14-14~~~~~-12h13h14-14-14h15p14-14~~~~~--------------|
-----------------------------------------------------------------------|
-----------------------------------------------------------------------|


and then Lead Guitar does the C G C Em | C G D--X1
and then the song is over


Ihoped you like this tab i will put more on here soon..

Thanks,
xxguitarmanxx19
Tap to rate this tab
# A B C D E F G H I J K L M N O P Q R S T U V W X Y Z