Guitaretab - guitar tabs
Song name
# A B C D E F G H I J K L M N O P Q R S T U V W X Y Z

Misc Unsigned Bands - Leedebo - Meant To Be Together Anyway tab

This is a song from the youtube singer, leedebo. Sorry I forgot his whole name, but he's 
good song-writer. Iím pretty sure this is accurate. The rhythm part is a little bit 
you have to listen to the video in youtube he posted up. enjoy!
http://youtube.com/watch?v=77st-p2ZLKQ

capo on 3rd frett
intro
      D                  A
E||-2-00-00-3-00-2-000-|-0-00-00-3-00-3-000-|
B||-3-33-33-3-33-3-333-|-2-22-22-2-22-2-222-|
G||-2-22-22-2-22-2-222-|-2-22-22-2-22-2-222-|
D||--------------------|-2-22-22-2-22-2-222-|
A||--------------------|--------------------|
E||--------------------|--------------------|

      Bm                  G
E||-2-22-22-2-22-2-222-|-3------------------|
B||-3-33-33-3-33-3-333-|-3------------------|
G||-4-44-44-4-44-4-444-|--------------------|
D||-4-44-44-4-44-4-444-|--------------------|
A||-2-22-22-2-22-2-222-|-2------------------|
E||-x-xx-xx-x-xx-x-xxx-|-3------------------|

      D                                A
As I look into the sky can't help but ask myself why
               Bm            G
theres no cloud when i'm with you
          D                                   A
and as I look into your eyes my heart beats faster all
                     Bm            G      A
the time and then I fly away with you
                      G      A
and i hope your gonna say
                       G
yeah i hope your gonna say!


intro
              D                    A
Say that you love me say that you need me, say that
      Bm      A        G
it's meant to be this way
               D                    A
Say that you love me say that you need me, say that
       Bm            A       G
we're meant to be together anyway
[ Tab from: http://www.guitaretab.com/m/misc-unsigned-bands/98587.html ]
      D                  A
E||-2-00-00-3-00-2-000-|-0-00-00-3-00-3-000-|
B||-3-33-33-3-33-3-333-|-2-22-22-2-22-2-222-|
G||-2-22-22-2-22-2-222-|-2-22-22-2-22-2-222-|
D||--------------------|-2-22-22-2-22-2-222-|
A||--------------------|--------------------|
E||--------------------|--------------------|
      Bm                  G
E||-2-22-22-2-22-2-222-|-3-33-33-3-33-3-333-|
B||-3-33-33-3-33-3-333-|-3-33-33-3-33-3-333-|
G||-4-44-44-4-44-4-444-|--------------------|
D||-4-44-44-4-44-4-444-|--------------------|
A||-2-22-22-2-22-2-222-|-2-22-22-2-22-2-222-|
E||-x-xx-xx-x-xx-x-xxx-|-3-33-33-3-33-3-333-|

As i hold your body close to mine this moment feels
like a lifetime, a lifetime with you
and as i look outside on this rollercoaster ride, i'm
gonna ride home with you
and i hope your gonna say
yeah i hope your gonna say!

Say that you love me say that you need me, say that
it's meant to be this way
Say that you love me say that you need me, say that
we're meant to be together anyway

and i hope your gonna say
yeah i hope your gonna say!
    A                    G
E||------000-000--000--|-3-33-333-333-------|
B||-22-2-222-222--222--|-3-33-333-333-------|
G||-22---222-222--222--|--------------------|
D||-22---222-222--222--|--------------------|
A||--------------------|-2-22-222-222-------|
E||--------------------|-3-33-333-333-------|


Say that you love me say that you need me, say that
it's meant to be this way
Say that you love me say that you need me, say that
we're meant to be together anyway x 2
were meant to be together anyway.

outro
   Bm    A     G        Bm
E||-2-----------3------|-3-------3----------|
B||-3-----2-----2------|---3-----3----------|
G||-4-----2------------|-----0--------------|
D||-4-----2------------|--------------------|
A||-2-----------3------|---------2----------|
E||-------------3------|---------3----------|
Related for Leedebo - Meant To Be Together Anyway tab