Song name
# A B C D E F G H I J K L M N O P Q R S T U V W X Y Z

Misc Unsigned Bands - Black Amendment - Silenced tab

"Silenced"
Black Amendment
Black Amendment(album)
---------------------
Once again, this is not only the intro, but also the chorus, verse,and pre-bridge. It 
be finished (hopefully) sometime tonight. But, for now, enjoy.
Tuning: EADGBe(standard)

Intro(drive w/delay):

E--------------------------|
B--------------------------|
G--------------------------|
D-0-0-7-0-0-5-0-0-3-0-0-1~-| (x4)
A--------------------------|
E--------------------------|

E-15^--------------------------|
B-15^--------------------------|
G------------------------------|
D------------------------------|
A------------------------------|
E-----slide pick down neck-12\-|

Verse:

E--------------------------|
B--------------------------|
G--------------------------|
D--------------------------|(x4)
A--------------------------|
E-0-0-2-0-0-3-0-0-2-0-0-3~-|

Chorus same as verse

verse(x4)
chorus(x4)

Pre bridge:

E--------------------------|
B--------------------------|
G--------------------------|
D--------------------------|(x4, on 3 and 4, just bend 7 and release fast)
A--------------------------|
E-9-9-9-9-9-9-9-9-7-7-7-6~-|
verse(x4)
Chorus(x4)
pre-bridge(x4)

Thats all, folks!
Really appriciated!
Tap to rate this tab
# A B C D E F G H I J K L M N O P Q R S T U V W X Y Z