Song name
# A B C D E F G H I J K L M N O P Q R S T U V W X Y Z

Misc Unsigned Bands - Valente - Home tab

                         Tabbed by: Mark Peters
                      Email: markpeterz@hotmail.co.uk

Amazing writer in both his music and lyrics! Love this song.. it's really catchy in a
sense! It's strange how it works!

Hope he hits it off big!

I would say this is pretty accurate interpretation of the song.. considering the
isn't acoustic itself.

Tuning: Standard, CAPO 1

Intro/Verse:

...Another sleepless airport

e|-------------------------------------------------|
B|---3-------------3-------------3--------------3--|
G|------0--2--4--4---0--2--2--4-----0--0--2--4-----|
D|-------------------------------------------------|
A|-------------------------------------------------|
E|-------------------------------------------------|

Chorus:

... If i close my eyes

   (close)  (in) (everything)(calm)
    Cadd9   Gmaj    Gadd9   Cadd9
e|----3-------3-------3-------3-----------------------|
B|----3-------3-------3-------3-----------------------|
G|----0-------2-------2-------0--------(REPEAT ONCE)--|
D|----2-------0-------0-------2-----------------------|
A|----3-------0-------2-------3-----------------------|
E|----0-------2-------0-------0-----------------------|

Bridge:
    (Rainy) (Only)   (One)  (Home)
     Gadd9   Gmaj      G    Cadd9
e|-----3-------3-------3-------3-------------------------------------------------|
B|-----3-------3-------3-------3-------------------------------------------------|
G|-----2-------2-------0-------0-------------------------------------------------|
D|-----0-------0-------0-------2-------------------------------------------------|
A|-----2-------0-------2-------3-------------------------------------------------|
E|-----0-------2-------3-------0-------------------------------------------------|


Verse:

     Em7      G     Cadd9
e|----3-------3-------3------------------------------|
B|----3-------3-------3------------------------------|
G|----0-------0-------0------------------------------|
D|----2-------0-------2------------------------------|
A|----2-------2-------3------------------------------|
E|----0-------3-------0------------------------------|

Verse:

Em7               G
Another sleepless airport
Cadd9
       My light blue shirt stained with sweat
Em7                        G
The jet lagged crowd bumps into me
Cadd9
       My bags were lost and my flight's at three


(Between the verse and chorus just strum (000033) a few times to break them up because 
both end and start on the same chord, so it sounds a bit crap if you don't do that.)

Chorus:

But if I close my eyes
I'm in your arms
Where every fear goes calm
Where you hold me tight
And breathe so slow
Your heartbeat sounds like Home

Verse:

The cities keep on changing
But the feeling's the same
There's no one place where I belong
Just rooms to rest and then move on

Chorus:

But if I close my eyes
I'm in your arms
Where every fear goes calm
Where you hold me tight
And breathe so slow
Your heartbeat sounds like Home

Bridge

Rainy streets and downtown trains the only thought that keeps me sane's that one day I 
find my way Home
And London Tokyo Rome L.A. it doesn't matter where I stay as long as you're a reach away 
be Home

Chorus:

Where I close my eyes
and I'm in your arms
Where every fear goes calm
Where you hold me tight
And breathe so slow
Your heartbeat sounds like Home

Chorus:

Where I close my eyes
and I'm in your arms
Where every fear goes calm
Where you hold me tight
And breathe so slow
Your heartbeat sounds like Home

http://www.myspace.com/valente

Record Label: Univox Records
Tap to rate this tab
 
# A B C D E F G H I J K L M N O P Q R S T U V W X Y Z