Song name
# A B C D E F G H I J K L M N O P Q R S T U V W X Y Z

Misc Unsigned Bands - Swamp Monster - Swampys Lair tab

. - palm mute
t - tremelo pick

both guitars (tremelo)
|-----------------|
|-----------------|
|-----------------|
|-----------------|
|---------5-4-7-8-|
|-0-2-3-2---------|x8

pause, then bell

both guitars
|-------------------------|
|-------------------------|
|-------------------------|
|-000-0-000-000-0---------|
|-000-0-000-000-0-5-8-4-7-|
|-000-0-000-000-0---------|x1
  ............... t t t t
guitar 1
|-------------------------|
|-------------------------|
|-------------------------|
|-000-0-000-000-0---------|
|-000-0-000-000-0-5-8-4-7-|
|-000-0-000-000-0---------|x1
  ............... t t t t 
guitar 2
|-------------------------|
|-------------------------|
|-------------------------|
|-000-0-000-000-0-5-8-4-7-|
|-000-0-000-000-0---------|
|-000-0-000-000-0---------|x1
  ............... t t t t
guitar 1
|-------------------------|
|-------------------------|
|-------------------------|
|-000-0-000-000-0-3-7-2-5-|
|-000-0-000-000-0---------|
|-000-0-000-000-0---------|x1
  ............... t t t t
guitar 2
|-------------------------|
|-------------------------|
|-------------------------|
|-000-0-000-000-0---------|
|-000-0-000-000-0-5-8-4-7-|
|-000-0-000-000-0---------|x1
  ............... t t t t
guitar 1
|-------------------------|
|-------------------------|
|-------------------------|
|-000-0-000-000-0---------|
|-000-0-000-000-0-5-8-4-7-|
|-000-0-000-000-0---------|x1
  ............... t t t t
guitar 2
|-------------------------|
|-------------------------|
|-------------------------|
|-000-0-000-000-0-5-8-4-7-|
|-000-0-000-000-0---------|
|-000-0-000-000-0---------|x1
  ............... t t t t
both guitars
|---------------------------------------------------------|
|---------------------------------------------------------|
|---------------------------------------------------------|
|-000-0-000-000-000-0-000-000-000-000-0-000-000-0---------|
|-000-0-000-000-000-0-000-000-000-000-0-000-000-0-5-8-4-7-|
|-000-0-000-000-000-0-000-000-000-000-0-000-000-0---------|x1
  ............................................... t t t t
repeat that riff again but guitar 2 plays this at the end
|---------|
|---------|
|---------|
|-5-8-4-7-|
|---------|
|---------|

both guitars
|-----------------------------------------------------------------|
|-----------------------------------------------------------------|
|-----------------------------------------------------------------|
|-------7-8-7-----------7-8-7-----------6-7-6-----------6-7-6-----|
|-5-7-8-------8-7-5-7-8-------8-7-4-6-7-------7-6-4-6-7-------7-6-|
|-----------------------------------------------------------------|x2

both guitars
|--------------------------------------------|
|--------------------------------------------|
|-------------------13-16-----------16-------|
|-------------12-15--------------------15----|
|-------11-14-----------------------------14-|
|-12-15--------------------12-15-12----------|
guitar 2 plays that riff 8 times and after 4 times guitar 1 goes into this
|--------------------------------------------|
|--------------------------------------------|
|-------------------16-19-----------19-------|
|-------------15-18--------------------18----|
|-------14-17-----------------------------17-|
|-15-18--------------------15-18-15----------|

guitar 1 only
|-----------------------|
|-----------------------|
|-----------------------|
|-000--000--0-0-0000000-|
|-000--000--0-0-0000000-|
|-000--000--0-0-0000000-|x1
  .....................

guitar 2 only
|-----------------------|
|-----------------------|
|-----------------------|
|-000--000--0-0-0000000-|
|-000--000--0-0-0000000-|
|-000--000--0-0-0000000-|x1
  .....................

both guitars
|-----------------------|
|-----------------------|
|-----------------------|
|-000--000--0-0-0000000-|
|-000--000--0-0-0000000-|
|-000--000--0-0-0000000-|x8
  .....................

both guitars
|-----------------------------------------------------------------|
|-----------------------------------------------------------------|
|-----------------------------------------------------------------|
|-------7-8-7-----------7-8-7-----------6-7-6-----------6-7-6-----|
|-5-7-8-------8-7-5-7-8-------8-7-4-6-7-------7-6-4-6-7-------7-6-|
|-----------------------------------------------------------------|x2

both
|-----------------------------|
|-----------------------------|
|-----------------------------|
|-----------------------------|
|---------1-------------------|
|-0-1-2-0---0--0-1-3-1-0-1-0--|x4
  ..........................

both
|-----------------------------|
|-----------------------------|
|-----------------------------|
|-----------------------------|
|---------1-------------------|
|-0-1-2-0---0--0-1-3-1-0-1-0--|x4

the breakdown right after the intro is played here again, everything is the same

then after it is finished it goes into this but half timed
both guitars
|---------------------------------------------------------|
|---------------------------------------------------------|
|---------------------------------------------------------|
|-000-0-000-000-000-0-000-000-000-000-0-000-000-0---------|
|-000-0-000-000-000-0-000-000-000-000-0-000-000-0-5-8-4-7-|
|-000-0-000-000-000-0-000-000-000-000-0-000-000-0---------|x1
  ............................................... t t t t
repeat that riff again but guitar 2 plays this at the end
|---------|
|---------|
|---------|
|-5-8-4-7-|
|---------|
|---------|

both guitars (tremelo)
|-----------------|
|-----------------|
|-----------------|
|-----------------|
|---------5-4-7-8-|
|-0-2-3-2---------|x8

end
Tap to rate this tab
# A B C D E F G H I J K L M N O P Q R S T U V W X Y Z