Song name
# A B C D E F G H I J K L M N O P Q R S T U V W X Y Z

Misc Unsigned Bands - Swamp Monster - Back Magic tab

* - pinch harmonic
t - tremelo
. - palm mute

drum whatever

both guitars
|--------------------------------|
|--------------------------------|
|--------------------------------|
|--------------------------------|
|-----------------------------*3-|
|-0-7-6-3-4-1-3-0-0-7-6-3-4-1----|x2

still both
|--------------------------|
|--------------------------|
|--------------------------|
|-0---0---0----7-6---------|
|-0---0---0--5-----7-8-7-4-|
|-0---0---0----------------|x4
  .   .   .

even more both (2nd time you play this its half time)
|------------------------------------------------------------------|
|------------------------------------------------------------------|
|------------------------------------------------------------------|
|-000-000----000-0-000-000-000-000-000-000----000-0-000-000-000----|
|-000-000----000-0-000-000-000-000-000-000----000-0-000-000-000-*3-|
|-000-000----000-0-000-000-000-000-000-000----000-0-000-000-000----|x4
  .......    .............................    .................
both guitars
|-----------------|
|-----------------|
|-----------------|
|-----------------|
|---------2-1-----|
|-0-1-4-3-----3-4-|x4

then guitar 1 plays
|-----------------|
|-----------------|
|-----------------|
|-----------------|
|---------4-3-----|
|-3-4-7-6-----6-7-|x4

while guitar 2 plays
|-----------------|
|-----------------|
|-----------------|
|-----------------|
|---------2-1-----|
|-0-1-4-3-----3-4-|x4

then both play (dont have my guitar with me a couple notes may be wrong)
|------------------------------------------------------------------|
|------------------------------------------------------------------|
|------------------------------------------------------------------|
|-----------------0--0--0--0000000-------------------------3-2-----|
|---------2-1-----0--0--0--0000000---------2-1-----5-4-0-1-----3-2-|
|-0-1-4-3-----3-4-0--0--0--0000000-0-1-4-3-----3-4-----------------|x4
                  .  .  .  .......
guitar 1 only
|-------------------------------|
|-------------------------------|
|-------------------------------|
|-1-0-1--0-1-3--1-0-000-000-000-|
|-1-0-1--0-1-3--1-0-000-000-000-|
|-1-0-1--0-1-3--1-0-000-000-000-|x1
  . .    . .        ...........

guitar 2 only
|-----------------|
|-----------------|
|-----------------|
|-000-000-000-000-|
|-000-000-000-000-|
|-000-000-000-000-|x1

bass only
|---------|
|---------|
|---------|
|-0-1-4-3-|x1

both guitars
|---------------------------------------------------------|
|---------------------------------------------------------|
|---------------------------------------------------------|
|-000-000-000-000-000-000-000-000-000-000-000-000---------|
|-000-000-000-000-000-000-000-000-000-000-000-000---------|
|-000-000-000-000-000-000-000-000-000-000-000-000-0-1-4-3-|x4
  ............................................... t t t t
the 2nd and 4th time, guitar 1 ends on this
|---------|
|---------|
|---------|
|---------|
|---------|
|-3-4-6-5-|x4
  t t t t

Guitar 1
|-----------------------------------|
|-----------------------------------|
|-----------------------------------|
|-----------------------------------|
|-5-7-8-7-5-4-1-0-5-7-8-7-11-7-10-6-|
|-----------------------------------|x2
  t t t t t t t t t t t t t t t t t

|-----------------------------------|
|-----------------------------------|
|-----------------------------------|
|-3-5-7-5-3-2-----3-5-7-5-10-6-9-5--|
|-------------1-0-------------------|
|-----------------------------------|x2 normal, then 2x slowed
  t t t t t t t t t t t t t t t t t

while guitar 1 plays that, guitar 2 plays
|-----------------------------------|
|-----------------------------------|
|-----------------------------------|
|-----------------------------------|
|-5-7-8-7-5-4-1-0-5-7-8-7-11-7-10-6-|
|-----------------------------------|x4 normal then 2 times slowed
  t t t t t t t t t t t t t t t t t

both guitars
|-----------------------------------|
|-----------------------------------|
|-----------------------------------|
|-----------------------------------|
|-5-5-8-7-4-4-5-5-5-5-8-7-10-10-4-5-|
|-----------------------------------|x1
  t t t t t t t t t t t t t t t t t

guitar 1
|-----------------------------------|
|-----------------------------------|
|-----------------------------------|
|-3-3-7-5-2-2-3-3-3-3-7-5-8-8-11-11-|
|-----------------------------------|
|-----------------------------------|x1
  t t t t t t t t t t t t t t t t t

|-------------------------------------|
|-------------------------------------|
|-------------------------------------|
|-------------------------------------|
|-5-5-8-7-4-4-5-5-5-5-8-7-10-10-13-13-|
|-------------------------------------|x1
  t t t t t t t t t t t t t t t t t t

both guitars
|----------------------------------------|
|----------------------------------------|
|----------------------------------------|
|-1-1-1----1-1-1-1-1---1-1----1-1-1-1----|
|-0-0-0----0-0-0-0-0---0-0-*2-0-0-0-0-*3-|
|-1-1-1----1-1-1-1-1---1-1----1-1-1-1----|x3

both end on
|-------|
|-------|
|-------|
|-1-1-1-|
|-0-0-0-|
|-1-1-1-|
Tap to rate this tab
# A B C D E F G H I J K L M N O P Q R S T U V W X Y Z