Song name
# A B C D E F G H I J K L M N O P Q R S T U V W X Y Z

Misc Unsigned Bands - D-formes - Tiempo Atras tab

Tiempo Atras (Intro)
D-Formes


e||-------3--------------3--------------3--------|
B||------------4--------------4--------------4---|
G||--5--------------5--------------5-------------|
D||----------------------------------------------|
A||----------------------------------------------|
E||----------------------------------------------|


e||---------------------------------------------|
B||------6----4---------6----4---------6----4---|
G||-3--------------3--------------3-------------|
D||---------------------------------------------|
A||---------------------------------------------|
E||---------------------------------------------|


e||------3----4----4----4----3----4\3---------3----4\3----------------|
B||-4------------------------------------4----------------4----3------|
G||-----------------------------------------------------------------5-|
D||-------------------------------------------------------------------|
A||-------------------------------------------------------------------|
E||-------------------------------------------------------------------|
Tap to rate this tab
# A B C D E F G H I J K L M N O P Q R S T U V W X Y Z