Song name
# A B C D E F G H I J K L M N O P Q R S T U V W X Y Z

Misc Unsigned Bands - General Purpose - The Might Taco Song tab

Verse:

--3--3--3-----0--0--0-----0--0--0-----2--2--2---|
--3--3--3-----0--0--0-----0--0--0-----3--3--3---|
--0--0--0-----0--0--0-----1--1--1-----2--2--2---|
--0--0--0-----2--2--2-----2--2--2-----0--0--0---|
--2--2--2-----2--2--2-----3--3--3-----x--x--x---|
--3--3--3-----0--0--0-----x--x--x-----x--x--x---|  X3

Chorus:

--3---X8---0---X8---0---X8---2--------|X8
--3--------0--------0--------3--------|
--0--------0--------1--------2--------|
--0--------2--------2--------0--------|
--2--------2--------3--------x--------|
--3--------0--------x--------x--------|  X2

Solo:

--------------3-3--1----------3-3--1----------------|
--------1--3----------3--2-1----------3--2-1--------|
--1--3----------------------------------------------|
----------------------------------------------------|
----------------------------------------------------|
----------------------------------------------------|

--5-5--3----------7-7--5----------9-9--7------------|
----------5--4-3----------7--6-5----------9--8-7----|
----------------------------------------------------|
----------------------------------------------------|
----------------------------------------------------|
----------------------------------------------------|

--9-9--7-----------10-9-7------9-7--8-7-5------7-5--|
----------9--8-7-----------9-7-------------7-5------|
----------------------------------------------------|
----------------------------------------------------|
----------------------------------------------------|
----------------------------------------------------|

--6-5-3-----5-3--4-3-1-----3-1----3-3--1------------|
--------5-3------------3-1---------------3--2-1-----|
----------------------------------------------------|
----------------------------------------------------|
----------------------------------------------------|
----------------------------------------------------|

--3-3--1------------------------3~~-----------------|
----------3--2-1----------2--3----------------------|
-------------------1-1-2----------------------------|
----------------------------------------------------|
----------------------------------------------------|
----------------------------------------------------|

Verse X3

Chorus X4
Tap to rate this tab
# A B C D E F G H I J K L M N O P Q R S T U V W X Y Z