Song name
# A B C D E F G H I J K L M N O P Q R S T U V W X Y Z

Misc Unsigned Bands - Swamp Monster - Apple Pie tab

. - palm mute
t - tremelo pick

both guitars
|---------------------------------|
|---------------------------------|
|---------------------------------|
|-7-7---6-5-5---------------------|
|-----8-------7-7-8-8---5-4-4-0-0-|
|---------------------8-----------|x4
  t t t t t t t t t t t t t t t t
both
|---------------------|
|---------------------|
|---------------------|
|-0-1-4-1-0-3-000-000-|
|-0-1-4-1-0-3-000-000-|
|-0-1-4-1-0-3-000-000-|x8 guitar 2,
              ... ...
guitar 1 plays that 4 times then plays
|---------------------|
|---------------------|
|---------------------|
|-3-4-7-4-3-6-000-000-|
|-3-4-7-4-3-6-000-000-|
|-3-4-7-4-3-6-000-000-|x4
              ... ...

both guitars
|----------------------------------------------------------------------|
|----------------------------------------------------------------------|
|----------------------------------------------------------------------|
|-0--0-0-0-0-0-0-1-0--0-0-0-0-0-0-1-0--0-0-0-0-0-0-6-0000000-1-0000000-|
|-0--0-0-0-0-0-0-1-0--0-0-0-0-0-0-1-0--0-0-0-0-0-0-6-0000000-1-0000000-|
|-0--0-0-0-0-0-0-1-0--0-0-0-0-0-0-1-0--0-0-0-0-0-0-6-0000000-1-0000000-|x4
     . . . . . .      . . . . . .      . . . . . .   .......   .......

guitar 1
|-------------------------|   |---------------------------|  \
|-------------------------|   |---------------------------|   \
|-------------------------|   |---------------------------|    \ repeat these
|-------6-5---8-6-5-6-5---|   |--------9-8---11-9-8-9-8---|    / riffs 3x
|-5-6-8-----6-----------6-|   |-8-9-11-----9------------9-|   /
|-------------------------|x2 |---------------------------|x2/

while guitar 2 plays
|-------------------------------------------------|
|-------------------------------------------------|
|-------------------------------------------------|
|-000-0-000-0-000-0-000-0-111-1-111-1-111-1-111-1-|
|-000-0-000-0-000-0-000-0-111-1-111-1-111-1-111-1-|
|-000-0-000-0-000-0-000-0-111-1-111-1-111-1-111-1-|
  ... . ... . ... . ... . ... . ... . ... . ... .

(guitar 2 riff continued)
|-------------------------------------------------|
|-------------------------------------------------|
|-------------------------------------------------|
|-444-4-444-4-444-4-444-4-333-3-333-3-333-3-333-3-|
|-444-4-444-4-444-4-444-4-333-3-333-3-333-3-333-3-|
|-444-4-444-4-444-4-444-4-333-3-333-3-333-3-333-3-|x3
  ... . ... . ... . ... . ... . ... . ... . ... .

both guitars
|-------------------------------------|
|-------------------------------------|
|-------------------------------------|
|-000-000----000-000------------------|
|-000-000----000-000----h3p2p0-h3p2p0-|
|-000-000----000-000------------------|x8
  ... ...    ... ...


Techno hoopty


guitar 1
|-----------------|   |---------------------|
|-----------------|   |---------------------|
|-----------------|   |-----------8-7-10-11-|
|---------5-4-7-8-|   |-8-7-11-10-----------|
|-5-4-8-7---------|   |---------------------|
|-----------------|x2 |---------------------|x2
  t t t t t t t t       t t t t t t t t t t 

while guitar 2 plays this

|-----------------|
|-----------------|
|-----------------|
|---------5-4-7-8-|
|-5-4-8-7---------|
|-----------------|x4
  t t t t t t t t

both
|-----------------|
|-----------------|
|-----------------|
|---------5-4-1-0-|
|-8-7-4-5---------|
|-----------------|x2
  t t t t t t t t

guitar 1
|-----------------|
|-----------------|
|-----------------|
|-7-5-2-3-5-4-1-0-|
|-----------------|
|-----------------|x2
  t.t.t.t.t.t.t.t.  <--tremelo pick and palm mute

guitar 2
|-----------------|
|-----------------|
|-----------------|
|---------5-4-1-0-|
|-8-7-4-5---------|
|-----------------|x2
  t.t.t.t.t.t.t.t.

i like pie

both
|-----------------------|
|-----------------------|
|-----------------------|
|-5--0--8--0--4-5-1-4-0-|
|-5--0--8--0--4-5-1-4-0-|
|-5--0--8--0--4-5-1-4-0-|x8 ( after 4x play all open
     .     .  . . .   .
Tap to rate this tab
# A B C D E F G H I J K L M N O P Q R S T U V W X Y Z