Song name
# A B C D E F G H I J K L M N O P Q R S T U V W X Y Z

Misc Unsigned Bands - Swamp Monster - Halo Of Locusts tab

Help us improve GuitareTab! Take a short survey!
t - tremelo pick
. - palm mute
/ - slide

both guitars
|------------------------------------------|
|------------------------------------------|
|------------------------------------------|
|-0---0-0--000-0-0--000-0--000-0-0-|
|-0---0-0--000-0-0--000-0--000-0-0-|
|-0---0-0--000-0-0--000-0--000-0-0-|x4 (last time do a slide)
      . .  ... . .  ... .  ... . .
both 
|---------------------------------------------------|
|---------------------------------------------------|
|---------------------------------------------------|
|-0--0--0-0-0-0--0-0-----0--0--0-0------------------|
|-0--0--0-0-0-0--0-0-----0--0--0-0------------------|
|-0--0--0-0-0-0--0-0-----0--0--0-0--6h9p6p0-3h6p3p0-|x4
  .  .  . . . .  . .     .  .  . .
both
|----------|
|----------|
|----------|
|-0--------|
|-0--------| hold this out
|-0--------|

Guitar 1
|------------------------------------------------------------------|
|------------------------------------------------------------------|
|------------------------------------------------------------------|
|-4444444444444444555555558888888844444444444444445555555577777777-|
|-5555555555555555666666669999999955555555555555556666666688888888-|
|------------------------------------------------------------------|x1
  tttttttttttttttttttttttttttttttttttttttttttttttttttttttttttttttt
guitar 2
|------------------------------------------------------------------|
|------------------------------------------------------------------|
|------------------------------------------------------------------|
|------------------------------------------------------------------|
|------------------------------------------------------------------|
|-0000000000000000111111114444444400000000000000001111111133333333-|x1
  tttttttttttttttttttttttttttttttttttttttttttttttttttttttttttttttt
guitar 1
|----------------------------------------------------------------|
|----------------------------------------------------------------|
|----------------------------------------------------------------|
|-5-5-5-5-5-5-5-555-5-5-5-5-5--5-6-6-6-6-6-6-6-6-9-9-9-9-9-9-9-9-|
|-4-4-4-4-4-4-4-444-4-4-4-4-4--4-5-5-5-5-5-5-5-5-8-8-8-8-8-8-8-8-|
|----------------------------------------------------------------|
  . . . . . . . ... . . . . .  . . . . . . . . . . . . . . . . .
riff above continued
|----------------------------------------------------------------|
|----------------------------------------------------------------|
|----------------------------------------------------------------|
|-5-5-5-5-5-5-5-555-5-5-5-5-5--5-6-6-6-6-6-6-6-6-8-8-8-8-8-8-8-8-|
|-4-4-4-4-4-4-4-444-4-4-4-4-4--4-5-5-5-5-5-5-5-5-7-7-7-7-7-7-7-7-|
|----------------------------------------------------------------|x1
  . . . . . . . ... . . . . .  . . . . . . . . . . . . . . . . .

guitar 2
|----------------------------------------------------------------|
|----------------------------------------------------------------|
|----------------------------------------------------------------|
|-0-0-0-0-0-0-0-000-0-0-0-0-0--0-1-1-1-1-1-1-1-1-4-4-4-4-4-4-4-4-|
|-0-0-0-0-0-0-0-000-0-0-0-0-0--0-1-1-1-1-1-1-1-1-4-4-4-4-4-4-4-4-|
|-0-0-0-0-0-0-0-000-0-0-0-0-0--0-1-1-1-1-1-1-1-1-4-4-4-4-4-4-4-4-|
  . . . . . . . ... . . . . .  . . . . . . . . . . . . . . . . .
riff above continued
|----------------------------------------------------------------|
|----------------------------------------------------------------|
|----------------------------------------------------------------|
|-0-0-0-0-0-0-0-000-0-0-0-0-0--0-1-1-1-1-1-1-1-1-3-3-3-3-3-3-3-3-|
|-0-0-0-0-0-0-0-000-0-0-0-0-0--0-1-1-1-1-1-1-1-1-3-3-3-3-3-3-3-3-|
|-0-0-0-0-0-0-0-000-0-0-0-0-0--0-1-1-1-1-1-1-1-1-3-3-3-3-3-3-3-3-|
  . . . . . . . ... . . . . .  . . . . . . . . . . . . . . . . .

both guitars
|----------------------------------------------------------------------|
|----------------------------------------------------------------------|
|----------------------------------------------------------------------|
|-0000000000000--00000-0--0--0000000-111111111111--11111-4--4--4444444-|
|-0000000000000--00000-0--0--0000000-111111111111--11111-4--4--4444444-|
|-0000000000000--00000-0--0--0000000-111111111111--11111-4--4--4444444-|
  ............   ....        ......  ...........   ....        .......
riff above continued
|----------------------------------------------------------------------|
|----------------------------------------------------------------------|
|----------------------------------------------------------------------|
|-0000000000000--00000-0--0--0000000-111111111111--11111-3--3--3333333-|
|-0000000000000--00000-0--0--0000000-111111111111--11111-3--3--3333333-|
|-0000000000000--00000-0--0--0000000-111111111111--11111-3--3--3333333-|
  ............   ....        ......  ...........   ....        .......

both
|-----------------|   |-----------------|   \
|-----------------|   |-----------------|    \
|-----------------|   |-----------------|     \ x 4
|-0--0-0--000-000-|   |-----------------|     / 
|-0--0-0--000-000-|   |-----------------|    /
|-0--0-0--000-000-|x3 |-1-0-2-0-1-0-3-0-|x1 /
     . .  ... ...

Both
|-------------------------|
|-------------------------|
|-------------------------|
|-------------------------|
|-----2-----3-----4-----3-|
|-0-1---0-1---0-1---0-1---|x4
  . . . . . . . . . . . .

clang crash ding bang clang ring crash

both
|---------------------------------|
|---------------------------------|
|---------------------------------|
|---------------------------------|
|-----2-----3-----4-----3-----2---|
|-0-1---0-1---0-1---0-1---0-1--0--|x4

both
|---------------------------------|
|---------------------------------|
|---------------------------------|
|-----2-----3-----4-----3-----2---|
|-----2-----3-----4-----3-----2---|
|-0-1---0-1---0-1---0-1---0-1--0--|x2
  . .   . .   . .   . .   . .  .

both
|------------------------------------------------|
|------------------------------------------------|
|------------------------------------------------|
|-000000000-----------------000000000----0---3-2-|
|-000000000-----------------000000000--1---1-----|
|-000000000-let the pm ring-000000000------------|x4
  .........                 .........
every other time guitar 1 plays this at end instead of other part
|-----------|
|-----------|
|---0---2-0-|
|-----------|
|-1---1-----|
|-----------|

both
|-----------------------------------------|
|-----------------------------------------|
|-----------------------------------------|
|-----------------------------------------|
|---5---8-7---5---8-7---5---8-7---5---8-7-|
|-8---8-----8---8-----0---0-----0---0-----|x2
  t t t t t t t t t t t t t t t t t t t t


both
|----------------|   |----------------|
|----------------|   |----------------|
|----------------|   |----------------|
|-8--8-8-888-888-|   |-8--8-8-8-7-5-7-|
|-8--8-8-888-888-|   |-8--8-8-8-7-5-7-|
|-8--8-8-888-888-|x3 |-8--8-8-8-7-5-7-|x1
     . . ... ...          . .

guitar 1
|----------------------------------------------------|
|----------------------------------------------------|
|----------------------------------------------------|
|-0--0-0-000-000-5-0-0-000-000-7-0-0-000-000-8-0-0-7-|
|-0--0-0-000-000---0-0-000-000---0-0-000-000---0-0---|
|-0--0-0-000-000---0-0-000-000---0-0-000-000---0-0---|x1
     . . ... ...   . . ... ...   . . ... ...   . .
guitar 2
|--------------------------------------------------------|
|--------------------------------------------------------|
|--------------------------------------------------------|
|-0--0-0-000-000-8-0-0-000-000-10-0-0-000-000-12-0-0-10--|
|-0--0-0-000-000---0-0-000-000----0-0-000-000-----0-0----|
|-0--0-0-000-000---0-0-000-000----0-0-000-000-----0-0----|x1
     . . ... ...   . . ... ...    . . ... ...     . .

both
|----------------|   |----------------|
|----------------|   |----------------|
|----------------|   |----------------|
|-8--8-8-888-888-|   |-8--8-8-8-7-5-7-|
|-8--8-8-888-888-|   |-8--8-8-8-7-5-7-|
|-8--8-8-888-888-|x3 |-8--8-8-8-7-5-7-|x1
     . . ... ...          . .

guitar 1
|----------------------------------------------------|
|----------------------------------------------------|
|----------------------------------------------------|
|-0--0-0-000-000-5-0-0-000-000-7-0-0-000-000-8-0-0-7-|
|-0--0-0-000-000---0-0-000-000---0-0-000-000---0-0---|
|-0--0-0-000-000---0-0-000-000---0-0-000-000---0-0---|x1
     . . ... ...   . . ... ...   . . ... ...   . .
guitar 2
|--------------------------------------------------------|
|--------------------------------------------------------|
|--------------------------------------------------------|
|-0--0-0-000-000-8-0-0-000-000-10-0-0-000-000-12-0-0-10--|
|-0--0-0-000-000---0-0-000-000----0-0-000-000-----0-0----|
|-0--0-0-000-000---0-0-000-000----0-0-000-000-----0-0----|x1
     . . ... ...   . . ... ...    . . ... ...     . .

guitar 1
|-----------------|
|-----------------|
|-----------------|
|-0---------------|
|-0-hold this out-|
|-0---------------|x1

guitar 2
|---------------------------------------------------|
|---------------------------------------------------|
|---------------------------------------------------|
|-00-00---00000-0-00000--00-00---0-000--------------|
|-00-00---00000-0-00000--00-00---0-000--8-7-5-7-5-4-|
|-00-00---00000-0-00000--00-00---0-000--------------|x2
  .. ..   ..... . .....  .. ..   . ...

both guitars
|---------------------------------------------------|
|---------------------------------------------------|
|---------------------------------------------------|
|-11-11---11111-1-11111--11-11---1-111--------------|
|-00-00---00000-0-00000--00-00---0-000--8-7-5-7-5-4-|
|-11-11---11111-1-11111--11-11---1-111--------------|x2
  .. ..   ..... . .....  .. ..   . ...

both guitars (100% mute after every note)
|------------------------------------------------------------------|
|------------------------------------------------------------------|
|------------------------------------------------------------------|
|-00-00---00000-0-00000--00-00---0-000--------------------------0--|
|-00-00---00000-0-00000--00-00---0-000--8-7-5-7-5-4-8-7-5-7-5-4-0--|
|-00-00---00000-0-00000--00-00---0-000--------------------------0--|x2
  .. ..   ..... . .....  .. ..   . ...
Related for Swamp Monster - Halo Of Locusts tab