Song name
# A B C D E F G H I J K L M N O P Q R S T U V W X Y Z

Misc Unsigned Bands - Piersi - Caluj Mnie tab

Piosenka jest bardzo prosta, poniewa w cay
czas powtarzamy jeden riff.

E1-----------------------------|
H2-----------------------------|
G3----2-2----------------------|
D4----0-0--2-2-4-4-------------|
A5---------0-0-2-2--5-5-7-7----|
E6------------------3-3-5-5----|

E1-----------------------------|
H2-----------------------------|
G3----2-2----------------------|
D4----0-0--2-2-4-4-------------|
A5---------0-0-2-2--5-5-7-7----|
E6------------------3-3-5-5----|

E1-----------------------------|
H2-----------------------------|
G3----2-2----------------------|
D4----0-0--2-2-4-4-------------|
A5---------0-0-2-2--5-5-7-7----|
E6------------------3-3-5-5----|

E1-----------------------------|
H2-----------------------------|
G3----2-2----------------------|
D4----0-0--2-2-4-4-------------|
A5---------0-0-2-2--5-5-7-7----|
E6------------------3-3-5-5----|

E1-----------------------------|
H2-----------------------------|
G3----2-2----------------------|
D4----0-0--2-2-4-4-------------|
A5---------0-0-2-2--5-5-7-7----|
E6------------------3-3-5-5----|

E1-----------------------------|
H2-----------------------------|
G3----2-2----------------------|
D4----0-0--2-2-4-4-------------|
A5---------0-0-2-2--5-5-7-7----|
E6------------------3-3-5-5----|

E1-----------------------------|
H2-----------------------------|
G3----2-2----------------------|
D4----0-0--2-2-4-4-------------|
A5---------0-0-2-2--5-5-7-7----|
E6------------------3-3-5-5----|

E1-----------------------------|
H2-----------------------------|
G3----2-2----------------------|
D4----0-0--2-2-4-4-------------|
A5---------0-0-2-2--5-5-7-7----|
E6------------------3-3-5-5----|
Miego grania.
Tap to rate this tab
# A B C D E F G H I J K L M N O P Q R S T U V W X Y Z