Song name
# A B C D E F G H I J K L M N O P Q R S T U V W X Y Z

Misc Unsigned Bands - Villa Roma - Diamond Eyes tab

-------------------------------------------------------------------------------
			     Diamond Eyes - Villa Roma
-------------------------------------------------------------------------------
Tabbed by: Matt
Email: mmmitc01@syr.edu

Tuning: FACGce, capo on 2nd fret

Intro/Chorus riff                                 |(only play this part
                                                  |when leading into verse 1 or bridge
e|---3--3---3------0--0---------3-3--3-3--3--5--3---|---3-3---3-----0-0------|
c|---0----0-0--2---2---2-2-0----0--0-0--0-0--0--0---|---0---0-0-2---2--2-2-0-|
G|---0------0------0-----0------4----4----4--4--4---|---0-----0-----0----0---|
C|---0------0------0-----0------0----0----0--0--0---|---0-----0-----0----0---|
A|---0------0------x-----x------x----x----x--x--x---|---0-----0-----x----x---|
F|-0-0------0----2-2-----2----4-4----4----4—-4--4---|-0-0-----0---2-2----2---|

Verse 1 (the writing shines…)
e|----------3-----------0---(7)----------------------------------------------|
c|----------0-----------0---(7)----------------------------------------------|
G|-7--7--7--2--7--7--7--2---(7)----------------------------------------------|
C|-0--0--0--0--0--0--0--2---(7)----------------------------------------------|
A|-x--x--x--0--x--x--x--x---(7)----------------------------------------------|
F|-7--6--5--0--7--6--5--1---(7)----------------------------------------------|

Verse 2 (I’d like to think…)
e|-0--0--0--3--0--0--0--0--x--x--x--x----------------------------------------|
c|-0--0--0--0--0--0--0--0--x--x--x--x----------------------------------------|
G|-7--7--7--2--7--7--7--2--x--x--x--x----------------------------------------|
C|-0--0--0--0--0--0--0--2--x--x--x--x----------------------------------------|
A|-x--x--x--0--x--x--x--x--x--x--x--x----------------------------------------|
F|-7--6--5--0--7--6--5--1--x--x--x--x----------------------------------------|

Bridge/Outro (don’t you look at me…)
e|-----3------------3-----------3-----------3--------------------------------|
c|-------0---0--------0---0-------0---0-------0---0--------------------------|
G|---------4------------4-----------4-----------4----------------------------|
C|---------------------------------------------------------------------------|
A|--------------------------3-3----------------------------------------------|
F|-4-4----------0-0---------------------2-2----------------------------------|

Verse 3 (you tried to play me…)
e|----------3-----------0---(7)----------------------------------------------|
c|----------0-----------0---(7)----------------------------------------------|
G|-7--7--7--2--7--7--7--2---(7)----------------------------------------------|
C|-0--0--0--0--0--0--0--2---(7)----------------------------------------------|
A|-x--x--x--0--x--x--x--x---(7)----------------------------------------------|
F|-7--6--5--0--7--6--5--1---(7)----------------------------------------------|
   ^  ^  ^  ^  ^  ^  ^  ^
Chorus after verse 3
e|-3--0--3--3--0--3--(7)-----------------------------------------------------|
c|-0--2--0--0--2--0--(7)-----------------------------------------------------|
G|-0--0--4--0--0--4--(7)-----------------------------------------------------|
C|-0--0--0--0--0--0--(7)-----------------------------------------------------|
A|-0--x--x--0--x--x--(7)-----------------------------------------------------|
F|-0--2--4--0--2--4--(7)-----------------------------------------------------|

Key

(7)= Harmonic on 7th fret
 ^ = palm mute
 x = string mute / rake
Tap to rate this tab
 
# A B C D E F G H I J K L M N O P Q R S T U V W X Y Z