Song name
# A B C D E F G H I J K L M N O P Q R S T U V W X Y Z

Misc Unsigned Bands - Pajama Bros - Flamin Cold tab

So here's the intro for my band's song, Flamin' Cold.
Song's not done yet it's WIP.(Work In Progress)
I'd appreciate comments. THANKS!

Gtr 1 plays this:
|--------------------------------------|
|--------------------------------------|
|----------------------0-----0---------|
|------0-------0-----0-----0-----0---0-|
|----2---2---2---2-3-----3-----2---1---|
|--0-------3---------------------------|
                              |_______|
                         This part goes fast!!
Gtr 2 plays this

|----------------------------|
|----------------------------|
|----------------------------|
|----------------0-----0---0-|
|----2-----2---3-----2---1---|
|--0-----3-------------------|


Stay tuned for the whole song.
(be reminded, this is WIP)
Tap to rate this tab
# A B C D E F G H I J K L M N O P Q R S T U V W X Y Z