Song name
# A B C D E F G H I J K L M N O P Q R S T U V W X Y Z

Misc Unsigned Bands - Metalcaust - Plague Black Death tab

Intro/Chorus
e|-------------------------------------|
B|-------------------------------------|
G|------5-4-5-7---------5-4-5-7-10-9-8-|
D|-0----5-4-5-7----0----5-4-5-7-10-9-8-|
A|-0----3-2-3-5----0----3-2-3-5-8--7-6-|
D|-0---------------0-------------------|

e|-------------------------------------|
B|-------------------------------------|
G|------5-4-5-7---------5-4-5-7-10-9-7-|
D|-0----5-4-5-7----0----5-4-5-7-10-9-7-|
A|-0----3-2-3-5----0----3-2-3-5-8--7-5-|
D|-0---------------0-------------------|

e|-------------------------------------|
B|-------------------------------------|
G|------5-4-5-7---------5-4-5-7-10-9-8-|
D|-0----x-x-x-x----0----x-x-x-x-x--x-x-|
A|-0----3-2-3-5----0----3-2-3-5-8--7-6-|
D|-0---------------0-------------------|

e|-------------------------------------|
B|-------------------------------------|
G|------5-4-5-7---------5-4-5-7-10-9-7-|
D|-0----x-x-x-x----0----x-x-x-x-x--x-x-|
A|-0----3-2-3-5----0----3-2-3-5-8--7-5-|
D|-0---------------0-------------------|


Bridge
e|--------------------------------------------------------------------------|
B|--------------------------------------------------------------------------|
G|-4h5p4-------------6h7p6--------------------------------------------------|
D|-------7-5-4-------------9-7-6-------8-7------6-5-----4h5p4-----2h3p2-----|
A|-------------7-5-4-------------9-7-6-----10-9-----8-7-------7-5-------5-3-|
D|--------------------------------------------------------------------------|


(Guitar Only)
e|------------------------------------------------------------------|
B|------------------------------------------------------------------|
G|------------------------------------------------------------------|
D|----7------8------5------4------7-----8---1h2h4-1h2h4-------------|
A|----5------6------3------2------5-----6---------------2h3h5-2h3h5-|
D|-00---0000---0000---0000---0000---0000--0-------------------------|

e|-----------------------------------------------------------|
B|-----------------------------------------------------------|
G|-----------------------------------------------------------|
D|----7------8------5------4------7-----8--------------------|
A|----5------6------3------2------5-----6---2h3p2------------|
D|-00---0000---0000---0000---0000---0000--0-------5-4-3-2-1~-|


(Snare Kicks In)
e|------------------------------------------------------------------|
B|------------------------------------------------------------------|
G|------------------------------------------------------------------|
D|----7------8------5------4------7-----8---1h2h4-1h2h4-------------|
A|----5------6------3------2------5-----6---------------2h3h5-2h3h5-|
D|-00---0000---0000---0000---0000---0000--0-------------------------|

e|-----------------------------------------------------------|
B|-----------------------------------------------------------|
G|-----------------------------------------------------------|
D|----7------8------5------4------7-----8--------------------|
A|----5------6------3------2------5-----6---2h3p2------------|
D|-00---0000---0000---0000---0000---0000--0-------5-4-3-2-1~-|

Verse 1
e|------------------------------------------------------------------|
B|------------------------------------------------------------------|
G|------------------------------------------------------------------|
D|----7------8------5------4------7-----8---1h2h4-1h2h4-------------|
A|----5------6------3------2------5-----6---------------2h3h5-2h3h5-|
D|-00---0000---0000---0000---0000---0000--0-------------------------|


e|------------------------------------------------------------------|
B|------------------------------------------------------------------|
G|------------------------------------------4h5p4-------------------|
D|----7------8------5------4------7-----8---------7-5-4-------------|
A|----5------6------3------2------5-----6---------------7-5-4-------|
D|-00---0000---0000---0000---0000---0000--0-------------------------|

e|------------------------------------------------------------------|
B|------------------------------------------------------------------|
G|------------------------------------------------------------------|
D|----7------8------5------4------7-----8---1h2h4-1h2h4-------------|
A|----5------6------3------2------5-----6---------------2h3h5-2h3h5-|
D|-00---0000---0000---0000---0000---0000--0-------------------------|


e|------------------------------------------------------------|
B|------------------------------------------------------------|
G|------------------------------------------------------------|
D|----7------8------5------4------7-----8---------------------|
A|----5------6------3------2------5-----6---2h3p2-------------|
D|-00---0000---0000---0000---0000---0000--0-------5-4-3-2-3*~-|


Pre-Chorus
e|-----------------------------------------------------------------|
B|-----------------------------------------------------------------|
G|-----------------------------------------------------------------|
D|---------3---2-----------3---2-----------------------------------|
A|-----6-5---4---3-----6-5---4---3---------------------------------|
D|-0-3-------------0-3-------------0-0-0-0-0-0-0-0-0-0-0-0-0-0-0-0-|


e|-----------------------------------------------------------------|
B|-----------------------------------------------------------------|
G|-----------------------------------------------------------------|
D|---------3---2-----------3---2-----------------------------------|
A|-----6-5---4---3-----6-5---4---3---------------------------------|
D|-0-3-------------0-3-------------0-0-0-0-0-0-0-0-0-0-0-0-0-0-0-0-|

e|-----------------------------------------------------------------|
B|-----------------------------------------------------------------|
G|-----------------------------------------------------------------|
D|---------3---2-----------3---2-----------------------------------|
A|-----6-5---4---3-----6-5---4---3---------------------------------|
D|-0-3-------------0-3-------------0-0-0-0-0-0-0-0-0-0-0-0-0-0-0-0-|

e|---------------------------------|
B|---------------------------------|
G|---------------------------------|
D|---------3---2-----------3---2---|
A|-----6-5---4---3-----6-5---4---3-|
D|-0-3-------------0-3-------------|

Chorus
e|-------------------------------------|
B|-------------------------------------|
G|------5-4-5-7---------5-4-5-7-10-9-8-|
D|-0----5-4-5-7----0----5-4-5-7-10-9-8-|
A|-0----3-2-3-5----0----3-2-3-5-8--7-6-|
D|-0---------------0-------------------|

e|-------------------------------------|
B|-------------------------------------|
G|------5-4-5-7---------5-4-5-7-10-9-7-|
D|-0----5-4-5-7----0----5-4-5-7-10-9-7-|
A|-0----3-2-3-5----0----3-2-3-5-8--7-5-|
D|-0---------------0-------------------|

e|-------------------------------------|
B|-------------------------------------|
G|------5-4-5-7---------5-4-5-7-10-9-8-|
D|-0----x-x-x-x----0----x-x-x-x-x--x-x-|
A|-0----3-2-3-5----0----3-2-3-5-8--7-6-|
D|-0---------------0-------------------|

e|-------------------------------------|
B|-------------------------------------|
G|------5-4-5-7---------5-4-5-7-10-9-7-|
D|-0----x-x-x-x----0----x-x-x-x-x--x-x-|
A|-0----3-2-3-5----0----3-2-3-5-8--7-5-|
D|-0---------------0-------------------|


Solo (if you want to call it that, I just kinda shred)
e|--------22p21p19-21p20p18-20p19p17-19p18p16-18p17p15-17p16p14-16p15p13-|
B|-----------------------------------------------------------------------|
G|-----------------------------------------------------------------------|
D|-0---------------------------------------------------------------------|
A|-0---------------------------------------------------------------------|
D|-0---------------------------------------------------------------------|


e|-15p14p12-19p18p16----------------------------19p18p16-------------------|
B|-------------------19p18p16----------------------------19p18p16----------|
G|----------------------------18p16p15----------------------------18p16p15-|
D|-------------------------------------18p16p15----------------------------|
A|-------------------------------------------------------------------------|
D|-------------------------------------------------------------------------|

e|----------17p16p14----------------------------17p16p14-------------------|
B|-------------------17p16p14----------------------------17p16p14----------|
G|----------------------------16p14p13----------------------------16p14p13-|
D|-18p16p15----------------------------16p14p13----------------------------|
A|-------------------------------------------------------------------------|
D|-------------------------------------------------------------------------|

e|-------------------------------------------------------------------------|
B|-------------------------------------------------------------------------|
G|-------------------------------------13h15h17----------------------------|
D|-16p14p13-------------------13h15h17----------------------------15h17h19-|
A|-------------------13h15h17----------------------------15h17h19----------|
D|----------13h15h17----------------------------15h17h19-------------------|

e|-------------19---19---19---19---19-22fb~~~~~~~-|
B|----------22b--22b--22b--22b--22b---------------|
G|-15h17h19---------------------------------------|
D|------------------------------------------------|
A|------------------------------------------------|
D|------------------------------------------------|


Verse 2
e|------------------------------------------------------------------|
B|------------------------------------------------------------------|
G|------------------------------------------------------------------|
D|----7------8------5------4------7-----8---1h2h4-1h2h4-------------|
A|----5------6------3------2------5-----6---------------2h3h5-2h3h5-|
D|-00---0000---0000---0000---0000---0000--0-------------------------|

e|-----------------------------------------------------------|
B|-----------------------------------------------------------|
G|-----------------------------------------------------------|
D|----7------8------5------4------7-----8--------------------|
A|----5------6------3------2------5-----6---2h3p2------------|
D|-00---0000---0000---0000---0000---0000--0-------5-4-3-2-1~-|

e|------------------------------------------------------------------|
B|------------------------------------------------------------------|
G|------------------------------------------------------------------|
D|----7------8------5------4------7-----8---1h2h4-1h2h4-------------|
A|----5------6------3------2------5-----6---------------2h3h5-2h3h5-|
D|-00---0000---0000---0000---0000---0000--0-------------------------|

e|------------------------------------------------------------|
B|------------------------------------------------------------|
G|------------------------------------------------------------|
D|----7------8------5------4------7-----8---------------------|
A|----5------6------3------2------5-----6---2h3p2-------------|
D|-00---0000---0000---0000---0000---0000--0-------5-4-3-2-3*~-|


Pre-Chorus
e|-----------------------------------------------------------------|
B|-----------------------------------------------------------------|
G|-----------------------------------------------------------------|
D|---------3---2-----------3---2-----------------------------------|
A|-----6-5---4---3-----6-5---4---3---------------------------------|
D|-0-3-------------0-3-------------0-0-0-0-0-0-0-0-0-0-0-0-0-0-0-0-|

e|-----------------------------------------------------------------|
B|-----------------------------------------------------------------|
G|-----------------------------------------------------------------|
D|---------3---2-----------3---2-----------------------------------|
A|-----6-5---4---3-----6-5---4---3---------------------------------|
D|-0-3-------------0-3-------------0-0-0-0-0-0-0-0-0-0-0-0-0-0-0-0-|

e|-----------------------------------------------------------------|
B|-----------------------------------------------------------------|
G|-----------------------------------------------------------------|
D|---------3---2-----------3---2-----------------------------------|
A|-----6-5---4---3-----6-5---4---3---------------------------------|
D|-0-3-------------0-3-------------0-0-0-0-0-0-0-0-0-0-0-0-0-0-0-0-|

e|---------------------------------|
B|---------------------------------|
G|---------------------------------|
D|---------3---2-----------3---2---|
A|-----6-5---4---3-----6-5---4---3-|
D|-0-3-------------0-3-------------|


Chorus
e|-------------------------------------|
B|-------------------------------------|
G|------5-4-5-7---------5-4-5-7-10-9-8-|
D|-0----5-4-5-7----0----5-4-5-7-10-9-8-|
A|-0----3-2-3-5----0----3-2-3-5-8--7-6-|
D|-0---------------0-------------------|

e|-------------------------------------|
B|-------------------------------------|
G|------5-4-5-7---------5-4-5-7-10-9-7-|
D|-0----5-4-5-7----0----5-4-5-7-10-9-7-|
A|-0----3-2-3-5----0----3-2-3-5-8--7-5-|
D|-0---------------0-------------------|

e|-------------------------------------|
B|-------------------------------------|
G|------5-4-5-7---------5-4-5-7-10-9-8-|
D|-0----x-x-x-x----0----x-x-x-x-x--x-x-|
A|-0----3-2-3-5----0----3-2-3-5-8--7-6-|
D|-0---------------0-------------------|

e|-------------------------------------|
B|-------------------------------------|
G|------5-4-5-7---------5-4-5-7-10-9-7-|
D|-0----x-x-x-x----0----x-x-x-x-x--x-x-|
A|-0----3-2-3-5----0----3-2-3-5-8--7-5-|
D|-0---------------0-------------------|


Outro
e|--------------------------------------------------------|
B|--------------------------------------------------------|
G|--------------------------------------------------------|
D|--------------------------------------------------------|
A|-0--000-0-0----0--000-0-0----0--000-0-0----0--00001-0-1-|
D|-0--000-0-0----0--000-0-0----0--000-0-0----0--00001-0-1-|


e|-----------------------------------------------------|
B|----------------------------------------------0-3----|
G|---------------------------------------------0---0---|
D|--------------------------------------------3-----3--|
A|-0--000-0-0----0--000-0-0----0--000-0-0----2-------2-|
D|-0--000-0-0----0--000-0-0----0--000-0-0--------------|

e|--------------------------------------------------------|
B|--------------------------------------------------------|
G|--------------------------------------------------------|
D|--------------------------------------------------------|
A|-0--000-0-0----0--000-0-0----0--000-0-0----0--00001-0-1-|
D|-0--000-0-0----0--000-0-0----0--000-0-0----0--00001-0-1-|

e|-----------------------------------------------------|
B|----------------------------------------------0-3----|
G|---------------------------------------------0---0---|
D|--------------------------------------------3-----3--|
A|-0--000-0-0----0--000-0-0----0--000-0-0----2-------2-|
D|-0--000-0-0----0--000-0-0----0--000-0-0--------------|


e|--------------------------------------------------------|
B|--------------------------------------------------------|
G|--------------------------------------------------------|
D|--------------------------------------------------------|
A|-0--000-0-0----0--000-0-0----0--000-0-0----0--00001-0-1-|
D|-0--000-0-0----0--000-0-0----0--000-0-0----0--00001-0-1-|


e|-----------------------------------------------------|
B|----------------------------------------------0-3----|
G|---------------------------------------------0---0---|
D|--------------------------------------------3-----3--|
A|-0--000-0-0----0--000-0-0----0--000-0-0----2-------2-|
D|-0--000-0-0----0--000-0-0----0--000-0-0--------------|


e|--------------------------------------------------------|
B|--------------------------------------------------------|
G|--------------------------------------------------------|
D|--------------------------------------------------------|
A|-0--000-0-0----0--000-0-0----0--000-0-0----0--00001-0-1-|
D|-0--000-0-0----0--000-0-0----0--000-0-0----0--00001-0-1-|

e|-----------------------------------------------------|
B|----------------------------------------------0-3----|
G|---------------------------------------------0---0---|
D|--------------------------------------------3-----3--|
A|-0--000-0-0----0--000-0-0----0--000-0-0----2-------2-|
D|-0--000-0-0----0--000-0-0----0--000-0-0--------------|

~ = bend up and down
* = pinch harmonic
h = hammer on
p = pull off
b = bend
x = mute
Tap to rate this tab
# A B C D E F G H I J K L M N O P Q R S T U V W X Y Z