Song name
# A B C D E F G H I J K L M N O P Q R S T U V W X Y Z

Misc Unsigned Bands - Wreckage Before March - You Could Float With All That Air In Your Head tab

This is our second song ever called "You Could Float With All That Air In Your Head". 
song, visit www.myspace.com/wreckagebeforemarch, and tell us what you think!

h = hammer-on
p = pull off
~ = vibrato
* = palm mute
[] = triplet
/ = slide
^ = bend
PH = pinch harmonic
/// = speed pick

ALL 0'S IN [] ARE TRIPLETS!

Tuning: Drop D

Intro (guitar 1) - REPEAT TWICE! (x2)
E----------------------------------------------------------------------------|
B----------------------------------------------------------------------------|
G----------(trill)-----------------(trill)---------------(trill)-------------|
D-[000]00---------------[000]00---------------[000]00------------------------|
A-[000]00-5h8p5h8p5h8p5-[000]00-4h7p4h7p4h7p4-[000]00-5h8p5h8p5h8p5----------|
D-[000]00---------------[000]00---------------[000]00------------------------|
*** ** *** ** *** **

Intro (guitar 2)
E----------------------------------------------------------------------------|
B---------/////////////---------/////////////---------//////////////---------|
G---------7777777777777---------6666666666666---------77777777777777---------|
D-[000]00---------------[000]00---------------[000]00------------------------|
A-[000]00---------------[000]00---------------[000]00------------------------|
D-[000]00---------------[000]00---------------[000]00------------------------|
*** ** *** ** *** **

(both guitars)
E-----------------------------------------------------------|
B-----------------------------------------------------------|
G-----------------------------------------------------------|
D-----------------------------------------7-----------------|BACK TO BEGGINING
A--------------(NEXT TIME)----------------7--(LET RING)-PH--|
D-8887775553^--------------8887771010108887-------------7^--|

VERSE (guitar 1) (repeat 4 times)
E----------------------------------------------------------------------------|
B----------------------------------------------------------------------------|
G-----------101010/9------------999/12------------121212/10------------------|
D-[000][000]-x-x-x/x-[000][000]-xxx/x--[000][000]-x-x-x-/x--[000][000]-------|
A-[000][000]-8-8-8/7-[000][000]-777/10-[000][000]-101010/8--[000][000]-3^~---|
D-[000][000]---------[000][000]--------[000][000]-----------[000][000]-------|
*** *** *** *** *** *** *** ***

VERSE (guitar 2)
E----------------------------------------------------------------------------|
B----------------------------------------------------------------------------|
G----------------------------------------------------------------------------|
D-[000][000]-7-7-7-5-[000][000]-5-5-5-8-[000][000]-8-8-8-7--[000][000]-2^~---|
A-[000][000]---------[000][000]---------[000][000]----------[000][000]-------|
D-[000][000]---------[000][000]---------[000][000]----------[000][000]-------|
*** *** *** *** *** *** *** ***


PRE-CHORUS (x8, guitar 1)
E----------------------------------------------------------------------------|
B----------------------------------------------------------------------------|
G-101010101010-99-121212121212-101010101010-99-12121212-14141414-------------|
D-x-x-x-x-x-x--xx-x-x-x-x-x-x--x-x-x-x-x-x--xx-x-x-x-x--x-x-x-x--------------|
A-8-8-8-8-8-8--77-101010101010-8-8-8-8-8-8--77-10101010-12121212-------------|
D----------------------------------------------------------------------------|

CHORUS (x2, guitar 1)
E----------------------------------------------------------------------------|
B----------------------------------------------------------------------------|
G-1010-xx-99-xx-9/10-xx-1010-xx-1212-xx-1414-1010-xx-99-xx-9/10-xx-----------|
D-x-x--xx-xx-xx-x-x--xx-x-x--xx-x-x--xx-x-x--x-x--xx-xx-xx-x-x--xx-----------|
A-8-8--xx-77-xx-7/8--xx-8-8--xx-1010-xx-1212-8-8--xx-77-xx-7/8--xx-----------|
D----------------------------------------------------------------------------|

CHORUS (guitar 2)
E----------------------------------------------------------------------------|
B----------------------------------------------------------------------------|
G----------------------------------------------------------------------------|
D-33--xx--22-xx-2h3--xx--33--xx--55--xx-77---33---xx-22-xx-2h3--xx-----------|
A-33--xx--22-xx-2h3--xx--33--xx--55--xx-77---33---xx-22-xx-2h3--xx-----------|
D-33--xx--22-xx-2h3--xx--33--xx--55--xx-77---33---xx-22-xx-2h3--xx-----------|

(still guitar 1 cont'd)
E----------------------------------------------------------------------------|
B----------------------------------------------------------------------------|
G-1010101010101010-5555555---------------------------------------------------|
D-x-x-x-x-x-x-x-x--xxxxxxx---------------------------------------------------|
A-8-8-8-8-8-8-8-8--3333333---------------------------------------------------|
D----------------------------------------------------------------------------|

(cont'd part guitar 2)
E----------------------------------------------------------------------------|
B----------------------------------------------------------------------------|
G----------------------------------------------------------------------------|
D-77777777-88888888----------------------------------------------------------|
A-77777777-88888888----------------------------------------------------------|
D-77777777-88888888----------------------------------------------------------|

AFTER-CHORUS (guitar 1)
E----------------------------------------------------------------------------|
B----------------------------------------------------------------------------|
G-10------------10-----9-------9-----7------5--------------------------------|
D-x--(LETRING)---------x-(LT)--------x-(LT)-x-(LT)--BACK TO INTRO------------|
A-8-----------88--8-88-7-----77-7-77-5------3--------------------------------|
D----------------------------------------------------------------------------|
** ** ** **

Thats basically it, just repeat the verse and chorus once and ya got it. and btw, i DID 
put all 2nd guitar in!!
Tap to rate this tab
# A B C D E F G H I J K L M N O P Q R S T U V W X Y Z