Song name
# A B C D E F G H I J K L M N O P Q R S T U V W X Y Z

Misc Unsigned Bands - The Unregenerate - Autumn Sucks tab

Intro to "Autumn Sucks" by The Unregenerate. These are EXACT. And this also happens to 
what the Lead Guitarist plays for the verses.


e|----------------|----------------|----------------|----------------|
B|----------------|----------------|----------------|----------------|
G|9---9-----------|------6---6-6-6-|9---9-----------|------4---4-4-4-|
D|9---9-9---9-9-9-|7---7-6---6-6-6-|9---9-9---9-9-9-|7---7-4---4-4-4-|
A|7---7-9---9-9-9-|7---7-4---4-4-4-|7---7-9---9-9-9-|7---7-2---2-2-2-|
E|------7---7-7-7-|5---5-----------|------7---7-7-7-|5---5-----------|

e|----------------|----------------|----------------|----------------|
B|----------------|----------------|----------------|----------------|
G|9---9-----------|------6---6-6-6-|----------------|----------------|
D|9---9-9---9-9-9-|7---7-6---6-6-6-|6-6-6-6-6-6-6-6-|7-7-7-9---7-7-7-|
A|7---7-9---9-9-9-|7---7-4---4-4-4-|6-6-6-6-6-6-6-6-|7-7-7-9---7-7-7-|
E|------7---7-7-7-|5---5-----------|4-4-4-4-4-4-4-4-|5-5-5-7---5-5-5-|

ALL x2

www.myspace.com/theunregenerate
Tap to rate this tab
# A B C D E F G H I J K L M N O P Q R S T U V W X Y Z