Song name
# A B C D E F G H I J K L M N O P Q R S T U V W X Y Z

Misc Unsigned Bands - The Unregenerate - Its Loaded tab

Intro to "It's Loaded" by The Unregenerate. These are EXACT.

p=pull-off

e|----------------|----------------|----------------|----------------|
B|----------------|----------------|----------------|----------0-----|
G|----------------|----------------|----------------|--------2p0-----|x2
D|----2---0-------|----2---0-------|----2---0-------|----2-----------|
A|------2-----2---|------2-----2---|------2-----2---|------2---------|
E|0-------------0-|--0-------------|0-------------0-|--0-------------|

e|----------------|----------------|----------------|----------------|
B|----------------|----------------|----------------|----------0-----|
G|----------------|----------------|----------------|--------2p0-----|x2
D|2---2---0-----2-|----2---0-------|2---2---0-----2-|----2-----------|
A|2-----2-----2-2-|------2-----2---|2-----2-----2-2-|------2---------|
E|0-------------0-|--0-------------|0-------------0-|--0-------------|



www.myspace.com/theunregenerate

Tap to rate this tab
 
# A B C D E F G H I J K L M N O P Q R S T U V W X Y Z