Song name
# A B C D E F G H I J K L M N O P Q R S T U V W X Y Z

Misc Unsigned Bands - The Unregenerate - Man Of Your Dreams tab

Intro to "Man of Your Dreams" by The Unregenerate. These are EXACT tabs.

e|--3---3---3---3-|--2---2---2---2-|--0---0---0---0-|--0---0---0---0-|
B|--3---3---3---3-|--3---3---3---3-|--0---0---0---0-|--0---0---0---0-|
G|0---0---0---0---|0---0---0---0---|0---0---0---0---|0---0---0---0---|x2
D|----------------|----------------|----------------|----------------|
A|----------------|----------------|----------------|----------------|
E|----------------|----------------|----------------|----------------|

e|3---3-3---3-3-3-|2---2-2---2-2-2-|0---0-0---0-0-0-|0---0-0---0-0-0-|
B|3---3-3---3-3-3-|3---3-3---3-3-3-|0---0-0---0-0-0-|0---0-0---0-0-0-|
G|0---0-0---0-0-0-|2---2-2---2-2-2-|0---0-0---0-0-0-|0---0-0---0-0-0-|x2
D|0---0-0---0-0-0-|0---0-0---0-0-0-|2---2-2---2-2-2-|2---2-2---2-2-2-|
A|2---2-2---2-2-2-|----------------|2---2-2---2-2-2-|2---2-2---2-2-2-|
E|3---3-3---3-3-3-|----------------|0---0-0---0-0-0-|0---0-0---0-0-0-|

Tap to rate this tab
# A B C D E F G H I J K L M N O P Q R S T U V W X Y Z