Song name
# A B C D E F G H I J K L M N O P Q R S T U V W X Y Z

Misc Unsigned Bands - You Me At Six - Save It For The Bedroom Rythem Guitar tab

tim0411
MAKE SURE YOUR IN DROP D! if not play power chords instead of octaves!

Ryhtem Guitar !! Lead Giutar shown after.
strum up and down!


Verse.
   00.00-00.21    00.21-00.26    00.26-00.32    00.32-00.37
    (keep your)   (and you know)  (well i )       (but you knew)
e|---------------------------------------------------------------------------|
B|---------------------------------------------------------------------------|
G|--6------------------------------------------------------------------------|
D|--~---------------4-----------------6---------------4----------------------|
A|--4---------------~-----------------~---------------~----------------------|
E|------------------4-----------------6---------------4----------------------|


  00.38-00.42    00.42-00.47      00.47-00.52     00.52-00.57
  (oh haven't)    (another night)   (well i)         (you knew i would)
e|---------------------------------------------------------------------------|
B|---------------------------------------------------------------------------|
G|--6------------------------------------------------------------------------|
D|------------------4-----------------6---------------4----------------------|
A|--4------------------------------------------------------------------------|
E|------------------4-----------------6---------------4----------------------|

Chorus.

  00.58-01.03    01.04-01.08    01.09-01.12   01.12-01.14  01.14-01.18
(so who,s..)      (with you)     (i hope)        (ooope)    (you know)
e|---------------------------------------------------------------------------|
B|---------------------------------------------------------------------------|
G|--6------------------------------------------------------------------------|
D|-------------------4---------------8--------------6------------4-----------|
A|--4------------------------------------------------------------------------|
E|-------------------4---------------8--------------6------------4-----------|

2nd Verse

  01.19-01.21        01.22-01.24        01.25-01.29
  (go home and)     (cos theres)     (your jealously doesn't sit with me)
e|---------------------------------------------------------------------------|
B|---------------------------------------------------------------------------|
G|-6-6-6-6-6-6-8-8-----------------------------------------------------------|
D|-6-6-6-6-6-6-6-6-6-6-6-6-6-6-8-8-4-4-4-4-4-4-6-6-4-4-4-4-4-4-6-6---(x2)----|
A|-4-4-4-4-4-4-4-4-6-6-6-6-6-6-6-6-4-4-4-4-4-4-4-4-4-4-4-4-4-4-4-4-----------|
E|-----------------6-6-6-6-6-6-6-6-4-4-4-4-4-4-4-4-4-4-4-4-4-4-4-4-----------|

end of 2nd verse

01.40-01.45       01.46-01.50
(well my)         (missingg)

e|---------------------------------------------------------------------------|
B|---------------------------------------------------------------------------|
G|---------------------------------------------------------------------------|
D|-6------------------4------------------------------------------------------|
A|---------------------------------------------------------------------------|
E|-6------------------4------------------------------------------------------|

Repeat Chorus Twice

     02.33-02.38             02.38-02.43
  (and you hooooppeeee)

e|-----------------------------------------------------------------------------|
B|-----------------------------------------------------------------------------|
G|--6----------6---------------------------------------------------------------|
D|---(let ring)------------------4-------------4-----(x3)----------------------|
A|--4----------4--------------------(let ring)---------------------------------|
E|-------------------------------4-------------4-------------------------------|

03.15-03.20                  03.21-03.25
(save it for (josh))     (save it for (group) )
strum up and down again
e|---------------------------------------------------------------------------|
B|---------------------------------------------------------------------------|
G|--6------------------------------------------------------------------------|
D|-------------------------------4-----------------------(x3)----------------|
A|--4------------------------------------------------------------------------|
E|-------------------------------4-------------------------------------------|


      03.57- til end
  sturm up and down

e|---------------------------------------------------------------------------|
B|---------------------------------------------------------------------------|
G|-------6-------------------------------------------------------------------|
D|---------------------------------------------------------------------------|
A|-------4-------------------------------------------------------------------|
E|---------------------------------------------------------------------------|


this was only the 2nd guitar
live max and Chris share lead and ryhtem
i will tab the lead when i have more time
thankyou!
===============================================================================
Tap to rate this tab
 
# A B C D E F G H I J K L M N O P Q R S T U V W X Y Z