Song name
# A B C D E F G H I J K L M N O P Q R S T U V W X Y Z

Misc Unsigned Bands - Maelstrom - Liberty Country tab

Title: Liberty Country (Was once called Liberty City) by Maelstrom (Actually just me alone).

Year: 2006


A song that I wrote (actually the first song I ever wrote, when I was 13).
This song is presently only available in my profile.

It's played on an electric guitar (I have a lovely Ibanez), but the version in my 
is played on classical guitar.

|---------------------------------------------------|
|---------------------------------------------------|
|-----3-------3-------------------------------------|
|-9-6-4---9-6-4-2-4---9-7-6-5--5-5-5--7-7-7---------|
|-9-6-4---9-6-4-2-4---9-7-6-5--5-5-5--7-7-7---------|
|-7-4-2---7-4-2-0-2---7-5-4-3--3-3-3--5-5-5---------|

(FLAG)

Repeat twice:
|---------------------------------------------------|
|---------------------------------------------------|
|---------------------------------------------------|
|-9-9-9-9-9-9-9-9-9-9-9-9-9-9-9--6-6-6-6-6-6-6-6----|
|-9-9-9-9-9-9-9-9-9-9-9-9-9-9-9--6-6-6-6-6-6-6-6----|
|-7-7-7-7-7-7-7-7-7-7-7-7-7-7-7--4-4-4-4-4-4-4-4----|

|------------------|
|------------------|
|------------------|
|-4-4-4-4-4-4-4-4--|
|-4-4-4-4-4-4-4-4--|
|-2-2-2-2-2-2-2-2--|

|-------------------------------------------------------------------------|
|-------------------------------------------------------------------------|
|-------------------------------------------------------------------------|
|-2-2-2-2-2-2-2-2-2-2-2-2-2-2-2--4-4-4-4-4-4-4-4--6-6-6--4----------------|
|-2-2-2-2-2-2-2-2-2-2-2-2-2-2-2--4-4-4-4-4-4-4-4--4-4-4--4----------------|
|-0-0-0-0-0-0-0-0-0-0-0-0-0-0-0--2-2-2-2-2-2-2-2--4-4-4--2----------------|

|-----------------------------------------------------------------------|
|-----------------------------------------------------------------------|
|-----------------------------------------------------------------------|
|-2-2-2-2-2-2-2-2-2-2-2-2-2-2-2--4--5-5-5-5-5-5-5-5-5-5-5-5-5-5-5--7--7-|
|-2-2-2-2-2-2-2-2-2-2-2-2-2-2-2--4--3-3-3-3-3-3-3-3-3-3-3-3-3-3-3--7--7-|
|-0-0-0-0-0-0-0-0-0-0-0-0-0-0-0--2--3-3-3-3-3-3-3-3-3-3-3-3-3-3-3--5--5-|

Where I typed (FLAG), restart from there once or twice.

|--------|
|--------|
|-----3--|
|-9-6-4--|
|-9-6-4--|
|-7-4-2--| x2

|-------------------------------------------------------------------------|
|-------------------------------------------------------------------------|
|-------------------------------------------------------------------------|
|-2-2-2-2-2-2-2-2-2-2-2-2-2-2-2--4--5-5-5-5-5-5-5-5-5-5-5-5-5-5-5-9-7-7---|
|-2-2-2-2-2-2-2-2-2-2-2-2-2-2-2--4--5-5-5-5-5-5-5-5-5-5-5-5-5-5-5-9-7-7---|
|-0-0-0-0-0-0-0-0-0-0-0-0-0-0-0--2--3-3-3-3-3-3-3-3-3-3-3-3-3-3-3-7-5-5---|

|------------------|
|------------------|
|------------------|
|-9---9-9-9--------|
|-9---7-7-7--------|
|-7---7-7-7--------|

That's pretty much it. This was tabbed kinda fast so it might have small mistakes.
Tap to rate this tab
# A B C D E F G H I J K L M N O P Q R S T U V W X Y Z