Song name
# A B C D E F G H I J K L M N O P Q R S T U V W X Y Z

Misc Unsigned Bands - A Squirtgun Drive By - Doctor tab

first tab what can i say enjoy!!!!

writen by: fat chucky D

Riff1: intro
e |------------------------------------------------------|
B |------------------------------------------------------|
G |------------------------------------------------------|
D |------------------------------------------------------|
A |-44-44-55-77-55-44-22-44-44-44-55-77-99-44-5-7-5-4-44-|
E |-22----------------------22------------------------22-|

|-------------------------------------------------------|
|-------------------------------------------------------|
|-------------------------------------------------------| let ring
|-----------------------------7-7-7-7-9-9-9-9-----------|
|44-55-77-55-44-22-44-44-55-0-5-5-5-5-7-7-7-7-----------|
|------------------22-----------------------------------|

verse   x8
|---------|---------------|
|---------|---------------|
|---------|---------------|
|---------|--7-7-9-9-9999-|
|--4------|--5-5-7-7-7777-|
|--2------|---------------|

pre-chorus
      x8      x8      x8      x8
|------|-------|-------|-------|
|------|-------|-------|-------|
|------|-------|-------|-------|
|------|-7-----|-------|-9-----|
|-4----|-5-----|-7-----|-7-----|
|-2----|-------|-5-----|-------|

chorus

    x8    x8    x8    x8
|-----|-----|-----|-----|
|-----|-----|-----|-----|
|-----|-----|-7---|-9---|
|-4---|-7---|-7---|-9---|
|-4---|-7---|-5---|-7---|
|-2---|-5---|-----|-----|


ok now this part is a tad tricky so look close on
how its done

solo

|-----------------------------------------------------------|
|-------------10-------------11-------------12--------13-13-|
|7-9-10-7-9-10--7-9-10-7-9-10--7-9-10-7-9-10--7-9-10-7------|
|-----------------------------------------------------------|
|-----------------------------------------------------------|
|-----------------------------------------------------------|

      x4     x4     x4
|------|------|------|------|
|-10---|-10---|-11---|-8----|
|-7----|-9----|-10---|-7----|
|------|------|------|------|
|------|------|------|------|
|------|------|------|------| x2 play this twice

play the pre chorus then intro and let it ring and your done

i wrote every line on the guitar for this song and many others that we do if
you play this and you like it come check us out
Tap to rate this tab
 
# A B C D E F G H I J K L M N O P Q R S T U V W X Y Z