Guitaretab - guitar tabs
Song name
# A B C D E F G H I J K L M N O P Q R S T U V W X Y Z

Misc Unsigned Bands - Svenhardz - The Gunslinger tab

SVENHARDZ 
Song: The Gunslinger (The Dark Tower I)
Album: The Gunslinger 
Music and Lyrics: F. D. Duarte

Tuning: Standard (EADGBE)

Intro:
E|---|
B|---|
G|---|
D|---|
A|-2-|
E|-0-|


Verse Riff:
E|-------------------------------------------|
B|-------------------------------------------|
G|-------------------------------------------|
D|-------------------------------------------|
A|-------------------------7------------5-4-|
E|-0-0-0-2-0-0-3-0-0-2-0-0-5--5-5-5-5-5-3--2-|

E|-------------------------------------------|
B|-------------------------------------------|
G|-------------------------------------------|
D|-------------------------------------------|
A|-------------------------7------------9-9-|
E|-0-0-0-2-0-0-3-0-0-2-0-0-5--5-5-5-5-5-7--7-|


Chorus Riff:
E|---------------------------------|
B|---------------------------------|
G|---------------------------------|
D|-4----2h4/5----------------------|
A|-2----0h2/3-3-3-3-3-3-3-3-3-3-3-|
E|---------------------------------|


Interlude I:
E||---------------|-----------------|---------|------------------------||
B||---------------|-----------------|---------|------------------------||
G||---------------|-----------------|---------|------------------------||
D||-9--------5-7-|-9--------12--10-|-5---7---|------------------------||
A||-7--7-7-7-3--5-|-7-7-7-7-10---9-|-3---5---|------------------------||
E||---------------|-----------------|---------|-0-0-0-0-0-0-0-0-0-0-0-0||


Solo Riff:
E||-------------------|----------------|-------------------|
B||-------------------|----------------|-------------------|
G||-------------------|----------------|-------------------|
D||-9--------9--------|-9--------12--7-|-5--------5--------|
A||-7--7-7-7-7--7-7-7-|-7-7-7-7-10--5-|-3--3-3-3-3--3-3-3-|
E||-------------------|----------------|-------------------|

E|----------------||
B|----------------||
G|----------------||
D|-4--------5--7--||
A|-2--2-2-2-3-5--||
E|----------------||


Harmony Riff: 
   Guitar I-                                                     Ending
E||-------------------------------------------------------------|-------||
B||-------------------------------------------------------------|-------||
G||-------------------------------------------------------------|-------||
D||----------------------------------7p5p0-5p3p0--5p3p0-3p2p0---|-------||
A||-7--7h9h10-7--12p10p9-7--7h9h10-5------------3-------------2-|-2/3/5-||
E||-------------------------------------------------------------|-------||
 |                                                                       |
 |                                                                       |
 | Guitar II-                                                            |
E||-------------------------------------------------------------|-------||
B||-------------------------------------------------------------|-------||
G||----------------------------------5p4p0-4p2p0--4p2p0-2p0-----|-------||
D||-5--5h7h9--5--10p9p7--5--5h7h9--4------------2-------------0-|-0h2/4-||
A||-------------------------------------------------------------|-------||
E||-------------------------------------------------------------|-------||
[ Tab from: http://www.guitaretab.com/m/misc-unsigned-bands/99035.html ]
(Alternate Harmony Ending):
   Guitar I-                                                    
E||-----------------------||
B||-----------------------||
G||-----------------------||
D||-----------------------||
A||-2/3/5-3--3/5/7-5--9-5-||
E||-----------------------||
 |                         |
 |                         |
 | Guitar II-              |
E||-----------------------||
B||-----------------------||
G||-----------------------||
D||-0h2/4-2--2/4/5-4--7-4-||
A||-----------------------||
E||-----------------------||
	

Interlude II:
E||-------------------|-------------------|
B||-------------------|-------------------|
G||-------------------|-------------------|
D||-------------------|-------------------|
A||-2--------2--------|-2--------2--------|
E||-0--0-0-0-0--0-0-0-|-0--0-0-0-0--0-0-0-|


E||-------------------|----------------|-------------------|
B||-------------------|----------------|-------------------|
G||-------------------|----------------|-------------------|
D||-------------------|----------------|-------------------|
A||-2--------2--------|-2--------2--4--|-5--------5--------|
E||-0--0-0-0-0--0-0-0-|-0--0-0-0-0--2--|-3--3-3-3-3--3-3-3-|

E||----------------|------------------|---------------||
B||----------------|------------------|---------------||
G||----------------|------------------|---------------||
D||----------------|------------------|---------------||
A||-5--------5--7--|-5--------5-------|-5--------5--4-||
E||-3--3-3-3-3--5--|-3--3-3-3-3--3-3-3|-3--3-3-3-3--2-||


Mosh Riff (Interlude III):
E||---------------------|---------------------|--------------------|
B||---------------------|---------------------|--------------------|
G||---------------------|---------------------|--------------------|
D||---------------------|---------------------|--------------------|
A||-5------4------------|-5------4------------|5------4------------|
E||-3--0-0-2--0-0-2-2-0-|-3--0-0-2--0-0-2-2-0-|3--0-0-2--0-0-2-2-0-|

E||---------------------|---------------------|--------------------|
B||---------------------|---------------------|--------------------|
G||---------------------|---------------------|--------------------|
D||---------------------|---------------------|--------------------|
A||-5------4------------|-5------4------------|5------4------------|
E||-3--0-0-2--0-0-2-2-0-|-3--0-0-2--0-0-2-2-0-|3--0-0-2--0-0-2-2-0-|

E||---------------------|------||
B||---------------------|------||
G||---------------------|------||
D||---------------------|-4----||
A||-5------4------------|-2----||
E||-3--0-0-2--0-0-2-2-0-|------||


End Riff:
E|------------------------|------------------------|------||
B|------------------------|------------------------|------||
G|------------------------|------------------------|------||
D|-5----------------------|-5----------------------|-5--7-||
A|-3--3-3-3-33-3-3-3-3-3-|-3--3-3-3-33-3-3-3-3-3-|-3--5-||
E|------------------------|------------------------|------||



SONG ORDER:

Intro
Verse Riff  5x
Chorus Riff  4x
Verse Riff  4x
Chorus Riff  4x
Interlude I  2x
Solo Riff  4x
Harmony Riff  2x
Solo Riff  4x
Harmony Riff  2x (second time use Alternate Harmony Ending)
Interlude II  2x
Mosh Riff (Interlude III)  3x
Intro
Verse Riff  4x
Chorus  4x
End Riff  1x


Related for Svenhardz - The Gunslinger tab