Song name
# A B C D E F G H I J K L M N O P Q R S T U V W X Y Z

Misc Unsigned Bands - This Is The Hospital - For The Angels tab

Band: This Is The Hospital
Song: For The Angels (Remastered)
Album: Daybreak
Band Website: http://www.myspace.com/thisisthehospital
              purevolume.com/thisisthehospital

Ok I'm Reallllllly Sorry That I'm Missing Part Of The Chorus and Second Verse
I'll Try Hard To Figure It Out

<3 Ben.jammin

|Guitar 1|

|-5-0-5-0-5-0---4-0-4-0-4-0---7-0-7-0--------------------------|
|--------------------------------------------------------------|
|--------------------------------------------------------------|
|--------------------------------------------------------------| X 10
|--------------------------------------------------------------|
|--------------------------------------------------------------|
|--------------------------------------------------------------|

|Guitar 2|

|-9-0-9-0-9-0---7-0-7-0-7-0---10-0-10-0------------------------|
|--------------------------------------------------------------|
|--------------------------------------------------------------|
|--------------------------------------------------------------| X 10
|--------------------------------------------------------------|
|--------------------------------------------------------------|
|--------------------------------------------------------------|

After 2 Times of The Above
|Guitar 3|

|---------------------------------------------------------------------------------------------|
|---------------------------------------------------------------------------------------------|
|---------------------------------------------------------------------------------------------|
|---------------------------------------------------------------------------------------------|
|-4-4---4-4--4444-4444----0-0---0-0--0000-0000----7-7---7-7--7777-7777----6-6---6-6--6666-6666|
|-4-4---4-4--4444-4444----0-0---0-0--0000-0000----7-7---7-7--7777-7777----6-6---6-6--6666-6666|
|-4-4---4-4--4444-4444----0-0---0-0--0000-0000----7-7---7-7--7777-7777----6-6---6-6--6666-6666|
             ...  ...                ...  ...                ...  ...

On Second Time End On:
|---|
|---|
|---|
|-4-|
|-4-|
|-4-|

Verse
Just For You...
|-----------------------------------------------|
|-----------------------------------------------|
|-----------------------------------------------|
|-----------------------------------------------|
|444444---000000---777777---666666--6666--777777|
|444444---000000---777777---666666--6666--777777|
|444444---000000---777777---666666--6666--777777|
 ......   ......   ......   ......  ....  ......

Chorus
|-----------------------|
|-----------------------|
|-----------------------|
|-----------------------|   Thats The First Part Of Chorus
|4444-/-6666-/-77777777-|     I dunno The Other Part
|4444-/-6666-/-77777777-|
|4444-/-6666-/-77777777-|

Repeat Verse
|----------------------------------------|
|----------------------------------------|
|----------------------------------------|
|----------------------------------------|
|444444---000000---777777---666666--6666-|
|444444---000000---777777---666666--6666-|
|444444---000000---777777---666666--6666-|
 ......   ......   ......   ......  ....

Then A Palm Mute Part I dunno

Repeat First Chorus Half hahaha


Repeat Intro

|Guitar 1|

|-5-0-5-0-5-0---4-0-4-0-4-0---7-0-7-0--------------------------|
|--------------------------------------------------------------|
|--------------------------------------------------------------|
|--------------------------------------------------------------| X 10
|--------------------------------------------------------------|
|--------------------------------------------------------------|
|--------------------------------------------------------------|

|Guitar 2|

|-9-0-9-0-9-0---7-0-7-0-7-0---10-0-10-0------------------------|
|--------------------------------------------------------------|
|--------------------------------------------------------------|
|--------------------------------------------------------------| X 10
|--------------------------------------------------------------|
|--------------------------------------------------------------|
|--------------------------------------------------------------|

After 2 Times of The Above
|Guitar 3|

|---------------------------------------------------------------------------------------------|
|---------------------------------------------------------------------------------------------|
|---------------------------------------------------------------------------------------------|
|---------------------------------------------------------------------------------------------|
|-4-4---4-4--4444-4444----0-0---0-0--0000-0000----7-7---7-7--7777-7777----6-6---6-6--6666-6666|
|-4-4---4-4--4444-4444----0-0---0-0--0000-0000----7-7---7-7--7777-7777----6-6---6-6--6666-6666|
|-4-4---4-4--4444-4444----0-0---0-0--0000-0000----7-7---7-7--7777-7777----6-6---6-6--6666-6666|
             ...  ...                ...  ...                ...  ...

On Second Time End On:
|---|
|---|
|---|
|-4-|
|-4-|
|-4-|


|Guitar 1|

|-5-0-5-0-5-0---4-0-4-0-4-0---7-0-7-0--------------------------|
|--------------------------------------------------------------|
|--------------------------------------------------------------|
|--------------------------------------------------------------| X 4
|--------------------------------------------------------------|
|--------------------------------------------------------------|
|--------------------------------------------------------------|

|Guitar 2|

|-9-0-9-0-9-0---7-0-7-0-7-0---10-0-10-0------------------------|
|--------------------------------------------------------------|
|--------------------------------------------------------------|
|--------------------------------------------------------------| X 4
|--------------------------------------------------------------|
|--------------------------------------------------------------|
|--------------------------------------------------------------|
Tap to rate this tab
# A B C D E F G H I J K L M N O P Q R S T U V W X Y Z