Song name
# A B C D E F G H I J K L M N O P Q R S T U V W X Y Z

Misc Unsigned Bands - Tli - Its Not For Me Its For Ryan tab

I know this is right i'm in the band

Intro x2

E--------------------------------------------------------------------------|
B--------------------------------------------------------------------------|
G-555555-777777------------------------------------------------------------|
D-555555-777777-777777-555555----------------------------------------------|
A-333333-555555-777777-555555----------------------------------------------|
E---------------555555-333333----------------------------------------------|

Verse x4
E--------------------------------------------------------------------------|
B--------------------------------------------------------------------------|
G-555555-777777------------------------------------------------------------|
D-555555-777777-777777-555555----------------------------------------------|
A-333333-555555-777777-555555----------------------------------------------|
E---------------555555-333333----------------------------------------------|

Bridge

E--------------------------------------------------------------------------|
B--------------------------------------------------------------------------|
G---------------555555-----------------------------------------------------|
D-333333-555555-555555-777777-333333-5-------------------------------------|
A-333333-555555-333333-777777-333333-5-------------------------------------|
E-111111-333333--------555555-111111-3-------------------------------------|

After Waiting For one Bar
Chorus x4

E--------------------------------------------------------------------------|
B--------------------------------------------------------------------------|
G-555555-------------------------------------------------------------------|
D-555555-555555-777777-33-22-----------------------------------------------|
A-333333-555555-777777-33-22-----------------------------------------------|
E--------333333-555555-11-00-----------------------------------------------|

Verse x4

E--------------------------------------------------------------------------|
B--------------------------------------------------------------------------|
G-555555-777777------------------------------------------------------------|
D-555555-777777-777777-555555----------------------------------------------|
A-333333-555555-777777-555555----------------------------------------------|
E---------------555555-333333----------------------------------------------|

Bridge

E--------------------------------------------------------------------------|
B--------------------------------------------------------------------------|
G---------------555555-----------------------------------------------------|
D-333333-555555-555555-777777-333333-5-------------------------------------|
A-333333-555555-333333-777777-333333-5-------------------------------------|
E-111111-333333--------555555-111111-3-------------------------------------|

After Waiting For one Bar
Chorus x4

E--------------------------------------------------------------------------|
B--------------------------------------------------------------------------|
G-555555-------------------------------------------------------------------|
D-555555-555555-777777-33-22-----------------------------------------------|
A-333333-555555-777777-33-22-----------------------------------------------|
E--------333333-555555-11-00-----------------------------------------------|

Solo

E--------------------------------------------------------------------------|
B--------------------------------------------------------------------------|
G-5------------------------------------------------------------------------|
D-5------5------7------32--------------------------------------------------|
A-3------5------7------32--------------------------------------------------|
E--------3------5------10--------------------------------------------------|

E--------------------------------------------------------------------------|
B--------------------------------------------------------------------------|
G-5------------------------------------------------------------------------|
D-5------5------7------32~-------------------------------------------------|
A-3------5------7------32~-------------------------------------------------|
E--------3------5------10~-------------------------------------------------|

After Waiting For one Bar
Chorus x4

E--------------------------------------------------------------------------|
B--------------------------------------------------------------------------|
G-555555-------------------------------------------------------------------|
D-555555-555555-777777-33-22-----------------------------------------------|
A-333333-555555-777777-33-22-----------------------------------------------|
E--------333333-555555-11-00-----------------------------------------------|

Outro

E--------------------------------------------------------------------------|
B--------------------------------------------------------------------------|
G--------------------------------------------------------------------------|
D-33-22-33-22-33-22-5~~~---------------------------------------------------|
A-33-22-33-22-33-22-3~~~---------------------------------------------------|
E-11-00-11-00-11-00-3~~~---------------------------------------------------|
Tap to rate this tab
 
# A B C D E F G H I J K L M N O P Q R S T U V W X Y Z