Guitaretab - guitar tabs
Song name
# A B C D E F G H I J K L M N O P Q R S T U V W X Y Z

Misc Unsigned Bands - Splash - Terror Tv tab

Intro

E --------------------------------  /
B --------------------------------  /
G 4444444477777777--------99999999  /
D 44444444777777777777777799999999  /   2-mal
A 22222222555555557777777777777777  /
E ----------------55555555--------  /

Strophe

E --------------------------------  /
B --------------------------------  /
G 4-------------------------------  /
D 4-------7-------5555555577777777  / 2-mal
A 2-------7-------5555555577777777  /
E --------5-------3333333355555555  /

E ----------------  /
B ----------------  /
G 4444----7777----  /
D 4444555577777777  /	   4-mal
A 2222555555557777  /
E ----3333----5555  /

Refrain

E --------------------------------  /
B --------------------------------  /
G 4444444477777777--------99999999  /
D 44444444777777777777777799999999  /   2-mal
A 22222222555555557777777777777777  /
E ----------------55555555--------  /

Solo (2. Gitarre noch mal Refrain)

E 2025202025202025202-----  /
B ------------------------  /
G ------------------------  /
D ------------------------  /   2-mal
A ------------------------  /
E ------------------------  /

Strophe
[ Tab from: http://www.guitaretab.com/m/misc-unsigned-bands/99070.html ]
E --------------------------------  /
B --------------------------------  /
G 4-------------------------------  /
D 4-------7-------5555555577777777  / 2-mal
A 2-------7-------5555555577777777  /
E --------5-------3333333355555555  /

E ----------------  /
B ----------------  /
G 4444----7777----  /
D 4444555577777777  /	   4-mal
A 2222555555557777  /
E ----3333----5555  /

Refrain

E --------------------------------  /
B --------------------------------  /
G 4444444477777777--------99999999  /
D 44444444777777777777777799999999  /   2-mal
A 22222222555555557777777777777777  /
E ----------------55555555--------  /


Strophe

E --------------------------------|
B --------------------------------|
G 4-------------------------------|
D 4-------7-------5-------7-------|
A 2-------7-------5-------7-------|
E --------5-------3-------5-------|

E ------------------------------------|
B ------------------------------------|
G 4-------------------------------7-7-|
D 4-------7-------5-------7-------777-|
A 2-------7-------5-------7-------575-|
E --------5-------3-------5--------5--|


E ----------------  /
B ----------------  /
G 4444----7777----  /
D 4444555577777777  /	   4-mal
A 2222555555557777  /
E ----3333----5555  /

Refrain

E --------------------------------  /
B --------------------------------  /
G 4444444477777777--------99999999  /
D 44444444777777777777777799999999  /   4-mal
A 22222222555555557777777777777777  /
E ----------------55555555--------  /
Related for Splash - Terror Tv tab
Advertisement will be closed in 10 seconds