Song name
# A B C D E F G H I J K L M N O P Q R S T U V W X Y Z

Misc Unsigned Bands - Filterscrew - Paano Na tab

...nice song nanaman nang filterscrew paano na?....sana magustuhan nio add nio narin me 
friendster soul_emo_20@yahoo.com....

intro:E-A9-A-Am
E      A9          A
 Sa pagsibol ng gabi
            Am             E
Mundo ko’y biglang nagunaw
           A9                A
Hindi ko man lang akalain na lalayo
          Am
Sana’y naghintay
E    A9     A    Am
       Paano na

CHORUS
E             A9           A            Am       E
 Aanhin pa ang bukas kung wala na ang lahat sayo
              A9
Hanggang kalian bang ganito
    A          Am       E-A9-A-Am
Aasa na lang ba sa wala

E              A9
 Pipigilan pa sana kita
     A         Am             E
Pero teka lang wala kana pala
         A9
Nasaan na nga ba ngayon
        A
Sana ay masaya
         Am
Dahil iniwan mo na ako
E    A9     A    Am
       Paano na

CHORUS2x
E             A9           A            Am       E
 Aanhin pa ang bukas kung wala na ang lahat sayo
                A9
Hanggang kalian bang ganito
     A         Am
Aasa na lang ba sa wala

adlib:E-A9-A-Am 2x

e----------------------------------------------------|
B----------------------------------------------------|
G-----------------9-8--------------------------------|
D-----6-7--9-9--9-----9-9s11-------7-6-7-6--7--9-----|
A---7---------------------------7h9---7--------------|
E----------------------------------------------------|

e-------------------12-11------------17-16---17-16----------|
B----9-10--12-12--12-----12-12/14---------17------17-17-----|
G---9-------------------------------------------------------|
D-----------------------------------------------------------|
A-----------------------------------------------------------|
E-----------------------------------------------------------|

repeat chorus 2x
Tap to rate this tab
 
# A B C D E F G H I J K L M N O P Q R S T U V W X Y Z