Song name
# A B C D E F G H I J K L M N O P Q R S T U V W X Y Z

Misc Unsigned Bands - The Unregenerate - Mirror Reflection tab

Intro to "Mirror Reflection" by The Unregenerate. exact tabs.

The first three measures are played pretty slow, then the later ones it's a fast picking pattern.

e|----------------|----------------|----------------|----------------|
B|----3-----------|----3-----------|3---------------|--3-----3---3\2-|
G|--------4-------|--------4-------|----4-----------|----4-----4---4-|
D|4---------------|4---------------|----------------|4-----4---------|
A|----------------|----------------|----------------|----------------|
E|----------------|----------------|----------------|----------------|

e|----------------|----------------|----------------|----------------|
B|--2-----2---2/3-|--3-----3---3\2-|--2-----2---2/3-|--3-----3---3\2-|
G|----4-----4---4-|----4-----4---4-|----4-----4---4-|----4-----4---4-|
D|4-----4---------|4-----4---------|4-----4---------|4-----4---------|
A|----------------|----------------|----------------|----------------|
E|----------------|----------------|----------------|----------------|

e|----------------|----------------|----------------|
B|--2-----2---2/3-|--0-----0---0---|--0-----0---0---|
G|----4-----4---4-|----4-----4---4-|----4-----4---4-|
D|4-----4---------|4-----4---------|4-----4---------|
A|----------------|----------------|----------------|
E|----------------|----------------|----------------|


www.myspace.com/theunregenerate
Tap to rate this tab
# A B C D E F G H I J K L M N O P Q R S T U V W X Y Z