Song name
# A B C D E F G H I J K L M N O P Q R S T U V W X Y Z

Misc Unsigned Bands - A Twizdid Tale - The Utopia Of A Healthy Soul C U Later tab

This is my favorite song by my band and it is based on a true story.

Sticks and stone may break my bones
-----------------------------------|
-----------------------------------|
---------------------------------3-|
-----2----2----2--5-6-5-4----2-----|
--0-0--0-0--0-0-----------0-0------|
-----------------------------------|

But, your hateful words will be your death wish!
-1---------------------------------------------|
--2--------------------------------------------|
---3-0-0---------------------------------------|
-----------------------2-0-----0-0-0-0-1-0-----|
-------------------0-0-------------0-0-2-0-----|
---------5-4-4-6-9-----------------0-0-3-0-----|

You gotta thing to say, say to my face! My cosmic punch, I Erase!
--0-0--------------0-3-5-7-9-----------------------------------|
-----0-0-------------------------------------------------------|
---------1-1---------------------------------------------------|
-------------1-2-3---------------------------------------------|
-----------------------------------------------------------1---|
----------------------------1-2-3-4-5-6-7-8-9-8-7-6-5-4-3-2----|

What, would, Jeusus, do?
-2-2-1-0-----0--1-2-1---|
-1-1-1-0-----0--1-2-1---|
-0-1-1--0---0-----------|
-0-1-1--0---0-----------|
-0-0-1---0-0------------|
-0-0-1---0-0------------|

Probally, kill, you!
----------------0-0-|
----------------0---|
----------------0---|
--------------------|
---1-1-1-1-3-5------|
-0-0--0-0-2-4-6-----|

Well that it.
Tap to rate this tab
# A B C D E F G H I J K L M N O P Q R S T U V W X Y Z