Guitaretab - guitar tabs
Song name
# A B C D E F G H I J K L M N O P Q R S T U V W X Y Z

Misc Unsigned Bands - Urinal Cake - Cincinati Time Waste tab

#----------------------------------PLEASE NOTE--------------------------------#
#This file is the author's own work and represents their interpretation of the#
#song. You may only use this file for private study, scholarship, or research.#
#-----------------------------------------------------------------------------#


Author/Artist: Urinal Cake
Title: Cincinati Time Waste
Album: True Bishop EP
Transcribed by: CMW
Guitar Tab

Intro:

Guitar 1
[ Tab from: http://www.guitaretab.com/m/misc-unsigned-bands/99135.html ]
-2-2-2-2-3-3-3-3-3p2p0--2-2-2-2-3-3-3-3-3p2p0---------------------------------|
--0-0-0-0-0-0-0-0--------0-0-0-0-0-0-0-0--------------------------------------|
------------------------------------------------------------------------------|
------------------------------------------------------------------------------|
------------------------------------------------------------------------------|
------------------------------------------------------------------------------|

Guitar 2

------------------------------------------------------------------------------|
------------------------------------------------------------------------------|
---2--2-----------------------------------------------------------------------|
---2--2--2--3-----------------------------------------------------------------|
---3--0--2--3-----------------------------------------------------------------|
---x-----0--1-----------------------------------------------------------------|
Related for Urinal Cake - Cincinati Time Waste tab
×
Urinal Cake - Cincinati Time Waste