Song name
# A B C D E F G H I J K L M N O P Q R S T U V W X Y Z

Misc Unsigned Bands - Dajana Loves Paisley - Come On Baby tab

----------------------------------------------------
         Dajana loves Paisley - Come on Baby
----------------------------------------------------
Tabbed by: Julian Klassen
Email: haunta_klassen@gmx.de

Tuning: Standard

g --------------------------------------------------------------------- |
d ---------1-2------------1-2---------------------------------  ------- |
a -----1-2------------0-1-------2-2-0-1-2-2-0-1-2-2-0-1-2-0---   |  x 3 |
E -2-2--------------0---------------------------------------4-  ------- |

g -----------------------------------------------------------|
d ---------1-2------------1-2--------------------------------|
a -----1-2------------0-1-------2-2-0-1-2-2-0-1-2-0-^2-2-0---|
E -2-2--------------0--------------------------------------0-|

g ---------------------------- |
d -44---44---44---222-3-- ---- |
a -44---44---44---222-3-- ---- |  x6
E -22---22---22---000-1-- ---- |

g -66-6-55-5-44-4-33-3--66-6-55-5----------2-1---2-1---|
d -66-6-55-5-44-4-33-3--66-6-55-5-6-4-6--------4-----4-|
a -44-4-33-3-22-2-11-1--44-4-33-3-6-4-6----------------|
E --------------------------------4-2-4----------------|

g --------------------------------------------------------------------- |
d ---------1-2------------1-2---------------------------------  ------- |
a -----1-2------------0-1-------2-2-0-1-2-2-0-1-2-2-0-1-2-0---   |  x 3 |
E -2-2--------------0---------------------------------------4-  ------- |

g -----------------------------------------------------------|
d ---------1-2------------1-2--------------------------------|
a -----1-2------------0-1-------2-2-0-1-2-2-0-1-2-0-^2-2-0---|
E -2-2--------------0--------------------------------------0-|

g ---------------------------- |
d -44---44---44---222-3-- ---- |
a -44---44---44---222-3-- ---- |  x6
E -22---22---22---000-1-- ---- |

         (Solo 1)

g -66-6-55-5-44-4-33-3--66-6-55-5----------2-1---2-1---|
d -66-6-55-5-44-4-33-3--66-6-55-5-6-4-6--------4-----4-|
a -44-4-33-3-22-2-11-1--44-4-33-3-6-4-6----------------|
E --------------------------------4-2-4----------------|

g ------------------------------------------------------------   |
d ---------1-2------------1-2---------------------------------   |
a -----1-2------------0-1-------2-2-0-1-2-2-0-1-2-2-0-1-2-0---   |  x 3
E -2-2--------------0---------------------------------------4-   |

g -----------------------------------------------------------|
d ---------1-2------------1-2--------------------------------|
a -----1-2------------0-1-------2-2-0-1-2-2-0-1-2-0-^2-2-0---|
E -2-2--------------0--------------------------------------0-|

g ---------------------------- |
d -44---44---44---222-3-- ---- |
a -44---44---44---222-3-- ---- |  x2
E -22---22---22---000-1-- ---- |

         (Solo 2)

g --66-6-55-5-44-4-33-3--99-9-99-9--11-11--11--11-11--11--   |
d --66-6-55-5-44-4-33-3--99-9-99-9--11-11--11--11-11--11--   |
a --44-4-33-3-22-2-11-1--77-7-77-7--9--9---9---9--9---9---   | x2
E --------------------------------------------------------   |

g ------------------------------------------------------------   |
d ---------1-2------------1-2---------------------------------   |
a -----1-2------------0-1-------2-2-0-1-2-2-0-1-2-2-0-1-2-0---   |  x 3
E -2-2--------------0---------------------------------------4-   |

g--------------------------------------------------------------------------------------- |
d---------1-2------------1-2------------------------------------------------------------ |
a-----1-2------------0-1-------2-2-0-1-2-2-0-1-2-2-0-1-2-0---2-2-0-1-2-2-0-1-2-2-0-1-2-0 |
E-2-2--------------0-------------------------------------------------------------------- |

g ---------------------------------------------------|
d -4-4-2-3-4-4-2-3-4-4-2-3-4--2-1--------------------|
a --------------------------------^2-(2)-1-----------|
E -------------------------------------------4--2\---|


Ich denke mal so oder so ähnlich wirds wohl gespielt... Verbesserungen bitte an
haunta_klassen@gmx.de
Tap to rate this tab
# A B C D E F G H I J K L M N O P Q R S T U V W X Y Z