Song name
# A B C D E F G H I J K L M N O P Q R S T U V W X Y Z

Misc Unsigned Bands - Taranchula - Moving Very Slowly tab

***Taken From http://www.hrwiki.org/index.php/Moving_Very_Slowly_Tablature

Drop D Tuning (big E becomes low D)

For best results, play with heavy distortion.

Intro

Gtr. 1

  let ring------------------------------------------------|
e|--------------------------------------------------------|
G|--------------------------------------------------------|
B|--------------------------------------------------------|
D|--------------------------------------------------------|
A|-0------12------1------13------0------12------1------13-|
D|-0------12------1------13------0------12------1------13-|

Gtr. 2

e|--------------------------------------------------------|
G|--------------------------------------10-------------11-|
B|--------------------------------------------------------|
D|--------------------------------------------------------|
A|--------------------------------------------------------|
D|--------------------------------------------------------|

Gtr. 1 OR Bass

for Gtr.
e|---------------------------------------|
G|---------------------------------------|
B|---------------------------------------|
D|---------------------------------------|
A|---------------------------------------|
D|-0-0-0-7-6-5-0-0-0-5-6-7-0-0-0-7-6-5-0-|

for Bass
B|---------------------------------------|
D|-0-0-0-7-6-5-0-0-0-5-6-7-0-0-0-7-6-5-0-|
A|---------------------------------------|
E|---------------------------------------|

Chorus (MOVIN' VERY SLOWLY!)

Gtr. 1 & 2 or just one or the other. Or neither, if you've got a bass.

e|-------------------------|
G|-------------------------|
B|-------------------------| 4x
D|-------------------------|
A|-------------------------|
D|-0-0-0-7-6-5-0-0-0-5-6-7-|

Bass

B|-------------------------|
D|-0-0-0-7-6-5-0-0-0-5-6-7-|
A|-------------------------| 4x
E|-------------------------|

Verse (Darkness, the fate of the world!)

Gtr. 1 & 2

e|--------------------------------------------------------|
G|--------------------------------------------------------|
B|--------------------------------------------------------|
D|--------------------------------------------------------| 2x
A|-1------------------------------------------------------|
D|-1------0-0-0-7-6-5-0-0-0-5-6-7-0-0-0-7-6-5-0-0-0-5-6-7-|

Bass

B|--------------------------------------------------------|
D|-1------0-0-0-7-6-5-0-0-0-5-6-7-0-0-0-7-6-5-0-0-0-5-6-7-| 2x
A|--------------------------------------------------------|
E|--------------------------------------------------------|

Chorus

Bridge

e|-------------------------------------------------|
G|-------------------------------------------------|
B|-------------------------------------------------|
D|-------------------------------------------------|
A|-------------------------------------------------|
D|-3--4-5--5-5-3--4-5--5-5-3--4-5--5-5-3--4-5--5-5-|

Bass

B|-------------------------------------------------|
D|-3--4-5--5-5-3--4-5--5-5-3--4-5--5-5-3--4-5--5-5-|
A|-------------------------------------------------|
E|-------------------------------------------------|

Solo - Wicked fast, not done yet.

Gtr. 1

e|----------------15-|
G|-15-15-18-15-15----|
B|-------------------|
D|-------------------|
A|-------------------|
D|-------------------|

Verse

Chorus

Bridge

Interlude

e|-----------------------------------------------------------------------------------------------|
G|-----------------------------------------------------------------------------------------------|
B|-----------------------------------------------------------------------------------------------|
D|-7-7-7-7-7-7-7-7-7-7-7-7-5-5-5-5-5-5-5-5-5-5-5-5-4-4-4-4-4-4-4-4-4-4-4-4-3-3-3-3-3-3-2-2-2-2-22|
A|-5-5-5-5-5-5-5-5-5-5-5-5-3-3-3-3-3-3-3-3-3-3-3-3-2-2-2-2-2-2-2-2-2-2-2-2-1-1-1-1-1-1-0-0-0-0-00|
D|-----------------------------------------------------------------------------------------------|
Tap to rate this tab
# A B C D E F G H I J K L M N O P Q R S T U V W X Y Z