Guitaretab - guitar tabs
Song name
# A B C D E F G H I J K L M N O P Q R S T U V W X Y Z

Misc Unsigned Bands - Writen By Noob - Easy 1 tab

E -----------------------------------------|
B -----------------------------------------|
G -----------------10-10-8------10b11------|
D -----------------------------------------|
A ----10-10-8------------------------------|
E 8-11--------11-8---------11-8------------|

[ Tab from: ]
E --------------------------------------------------------|
B --------------------------------------------------------|
G ---------------10-10-8-8------10b12---------------------|
D --------------------------------------------------------|
A ----8-8-10----------------------------------------------|
E 8-11------11-8------------11-8------8-11-8-11b12-11-8---|

It has to sound like this:

This is one of my first numbers that I've writen.
It's not that special but I enjoy writing it.
I'm a noob... I play +/- 1 year guitar.
Comments please :D

P.M. = Palm Mute
b = Bend

Related for Writen By Noob - Easy 1 tab