Song name
# A B C D E F G H I J K L M N O P Q R S T U V W X Y Z

Misc Unsigned Bands - Comix Zone - Woe Is The World tab

-------------------------------------------------------------------------------------
			         Woe is the World - Comix Zone
-------------------------------------------------------------------------------------
Tabbed by: AlexxShadenk777
E-mail: Alexx2kx@hotmail.com

Tuning: D A D G B e

This isn't the first tab I make, but it's the first tab I'm subitting. Nothing too hard
if you have the song in your possession it shouldn't be hard to understand the tab
I'm sorry for the lack of the solo as I don't know how to play any and therefore can't 
this song's either.


Intro and main Riff of the entire song
e[--------------------------------------]
B[--------------------------------------]
G[--------------------------------------]
D[--3/5--5-5/3----3-3/6--6-6/3----------]
A[--3/5--5-5/3----3-3/6--6-6/3----------]
D[--3/5--5-5/3----3-3/6--6-6/3----------] repeat as many times as needed


Chorus
e[--------------------------------------]
B[--------------------------------------]
G[--------------------------------------]
D[--1--1--1--1-6------1--1--1--1-6------]
A[--1--1--1--1-6------1--1--1--1-6------]
D[--1--1--1--1-6------1--1--1--1-6------]

e[--------------------------------------]
B[--------------------------------------]
G[--------------------------------------]
D[--3--3--3-3-5-6--6--6-6-8-10----------]
A[--3--3--3-3-5-6--6--6-6-8-10----------]
D[--3--3--3-3-5-6--6--6-6-8-10----------]

e[-------------------------------------------------------------------------------]
B[-------------------------------------------------------------------------------]
G[-------------------------------------------------------------------------------]
D[--3--3--3-3-5-6--6--6-6-8-10----8----10----8----6----3/5--5-5/3--3-3/6--6-6/3--]
A[--3--3--3-3-5-6--6--6-6-8-10----8----10----8----6----3/5--5-5/3--3-3/6--6-6/3--]
D[--3--3--3-3-5-6--6--6-6-8-10----8----10----8----6----3/5--5-5/3--3-3/6--6-6/3--]

Riff
e[--------------------------------------]
B[--------------------------------------]
G[--------------------------------------]
D[--3/5--5-5/3----3-3/6--6-6/3----------]
A[--3/5--5-5/3----3-3/6--6-6/3----------]
D[--3/5--5-5/3----3-3/6--6-6/3----------] repeat as many times as needed


Chorus
e[--------------------------------------]
B[--------------------------------------]
G[--------------------------------------]
D[--1--1--1--1-6------1--1--1--1-6------]
A[--1--1--1--1-6------1--1--1--1-6------]
D[--1--1--1--1-6------1--1--1--1-6------]

e[--------------------------------------]
B[--------------------------------------]
G[--------------------------------------]
D[--3--3--3-3-5-6--6--6-6-8-10----------]
A[--3--3--3-3-5-6--6--6-6-8-10----------]
D[--3--3--3-3-5-6--6--6-6-8-10----------]

e[-----------------------------------------------------]
B[-----------------------------------------------------]
G[-----------------------------------------------------]
D[--3--3--3-3-5-6--6--6-6-8-10----8----10----8-6-1-----]
A[--3--3--3-3-5-6--6--6-6-8-10----8----10----8-6-1-----]
D[--3--3--3-3-5-6--6--6-6-8-10----8----10----8-6-1-----]


Riff
e[--------------------------------------]
B[--------------------------------------]
G[--------------------------------------]
D[--3/5--5-5/3----3-3/6--6-6/3----------]
A[--3/5--5-5/3----3-3/6--6-6/3----------]
D[--3/5--5-5/3----3-3/6--6-6/3----------] repeat as many times as needed


Chorus
e[--------------------------------------]
B[--------------------------------------]
G[--------------------------------------]
D[--1--1--1--1-6------1--1--1--1-6------]
A[--1--1--1--1-6------1--1--1--1-6------]
D[--1--1--1--1-6------1--1--1--1-6------]

e[--------------------------------------]
B[--------------------------------------]
G[--------------------------------------]
D[--3--3--3-3-5-6--6--6-6-8-10----------]
A[--3--3--3-3-5-6--6--6-6-8-10----------]
D[--3--3--3-3-5-6--6--6-6-8-10----------] x3

e[-----------------------------------------------------]
B[-----------------------------------------------------]
G[-----------------------------------------------------]
D[--3--3--3-3-5-6--6--66-8-10----8----10----8-6-1------]
A[--3--3--3-3-5-6--6--66-8-10----8----10----8-6-1------]
D[--3--3--3-3-5-6--6--66-8-10----8----10----8-6-1------]

Let the last chord fade away while slowly turning the guitar's volume down
Tap to rate this tab
# A B C D E F G H I J K L M N O P Q R S T U V W X Y Z