Song name
# A B C D E F G H I J K L M N O P Q R S T U V W X Y Z

Misc Unsigned Bands - A Twizdid Tale - In A Little Box Of Sin tab

In a Little Box of Sin.

Whole song except solo.

1--2--3------------0-3-0-|
-------0-----------0-3-0-|
--------0----------------|
---------0---------------|
----------0--------------|
-----------0-1-3-5-------|

Solo
0-0-1-2-4-3-2-1---------------------------|
------------------------------------------|
---------------0-0-0-6-7-8-9--0-0-0-1-2-3-|
------------------------------------------|
------------------------------------------|
------------------------------------------|


There it is.

(=matthewsims
Tap to rate this tab
# A B C D E F G H I J K L M N O P Q R S T U V W X Y Z