Song name
# A B C D E F G H I J K L M N O P Q R S T U V W X Y Z

Misc Unsigned Bands - Next Of Kin - Flatline tab

     Next Of Kin
 pm.. - palm mute
 >>>> - hold (let ring)

--------------------------------------------------------------|
--------------------------------------------------------------|
-----2-------4-----------------4------------------------------|  riff A
---2---2---2---2-------3---------2-------0>>------------------|
-0-------0-------0---3---3---3-----3---0----------------------|
-------------------3-------3---------0------------------------|
                                                                gtr.1
------------------------------------------------0>>-----------|
----------------------------------------------------0>>-------|
-----2-------4-----------------4------------------------2>>---|  Riff B
---2---2---2---2-------3---------2-------0>>------------------|
-0-------0-------0---3---3---3-----3---0----------------------|
-------------------3-------3---------0------------------------|

---------------------------------------------------|
---------------------------------------------------|   Riff C
------------------------------------------   gtr.2-|
-7>>--7--9>>--9--12>>--7>>--7--3>>--3--0-----------|>
---------------------------------------------------|
---------------------------------------------------|

------------------------------------------|
------------------------------------------|
------------------------------------------|   riff D
------------------------------------------|
-0--0-0-0-0-0-0-0-0-0-0-0-0-0-------------|
-0--0-0-0-0-0-0-0-0-0-0-0-0-0-------------|
    pm.......................

--------------------------------------|
--------------------------------------|
--------------------------------------|   riff E
--------------------------------------|
--7>>----7----3>>----3----0>>---------|
--7>>----7----3>>----3----0>>---------|

---------------------------------------------------------|
---------------------------------------------------------|
---------------------------------------------------------|   riff F
---------------------------------------------------------|
-7>>----7----3>>----3----0-0-0-0-0-0-0-0-0-0-0-0-0-0-0-0-|
-7>>----7----3>>----3----0-0-0-0-0-0-0-0-0-0-0-0-0-0-0-0-|

----------------------------------------------------------------------|
----------------------------------------------------------------------|
----------------------------------------------------------------------|   riff G
----------------------------------------------------------------------|
-7-7-7-7-7-7-7-7-9-9-9-9-10-10-10-10-3-3-3-3-3-3-3-3-9-9-9-9-10-10-10-|
-7-7-7-7-7-7-7-7-9-9-9-9-10-10-10-10-3-3-3-3-3-3-3-3-9-9-9-9-10-10-10-|
 pm..................................................................

---------------------------------------|
---------------------------------------|
---------------------------------------|   riff H
---------------------------------------|
-7>>>--9>>---10>>----3>>----10>>---9---|>
-7>>>--9>>---10>>----3>>----10>>---9---|>

---------------------------------------|
---------------------------------------|
---------------------------------------|   riff I
---------------------------------------|
---------------------------------------|
-7-7-7-7-7-7-7-7-7-7-7-7-7-7-7-7-7-7-7-| etc....

---------------------------------------------------------|
---------------------------------------------------------|
---------------------------------------------------------|   riff J
---------------------------------------------------------|
---------------------------------------------------------|
-7-7-7-7-7-7-7-7-9-9-9-9-9-9-9-9-12-12-12-12-12-12-12-12-|

---------------------------------------------------------|
---------------------------------------------------------|   riff K
---------------------------------------------------------|
-7-7-7-7-7-7-7-7-9-9-9-9-9-9-9-9-12-12-12-12-12-12-12-12-|
---------------------------------------------------------|
---------------------------------------------------------|


-------------------------------------------------------------|
-------------------------------------------------------------|
-------------------------------------------------------------|   riff L
-------------------------------------------------------------|
-------7>>---------3>>------------12>>---------10>>-----9>>--|
-7-7-7-7>>---3-3-3-3>>---12-12-12-12>>---10-10-10>>-9-9-9>>--|
 pm...       pm...       pm......        pm...      pm..

-------------------------------------------------------------------|
-------------------------------------------------------------------|
-------------------------------------------------------------------|   riff M
-------------------------------------------------------------------|
-------7>>---------3>>------------12>>---------10>>-----9>>--3>>>--|
-7-7-7-7>>---3-3-3-3>>---12-12-12-12>>---10-10-10>>-9-9-9>>--3>>>--|
 pm...       pm...       pm......        pm...      pm..

************
* sequence *
************

riff A x1
riff B x2
riff A x1
riff B x3
riff A x1
riff C x2
riff D x1
riff E x3
riff F x1               www.myspace.com/nextofkinyeah
riff G x1
riff H x1
riff G x1
riff H x1
riff E x3
riff F x1
riff I x1
riff J x2
riff K x2
riff L x5
riff M x1                   --7>>--|
riff E x8 (last time, end on--7>>--|  allow feedback)
riff A x1
riff B x1
riff A x2
Tap to rate this tab
 
# A B C D E F G H I J K L M N O P Q R S T U V W X Y Z