Guitaretab - guitar tabs
Song name
# A B C D E F G H I J K L M N O P Q R S T U V W X Y Z

Misc Unsigned Bands - Under Al Kritik - Boernenes Skrig tab

Under Al Kritik - BÝrnenes Skrig
Tabbed by Niels.

Tunning: Standard
Main Riff/Verse: (There is a kindda special rhythm, listen and find out)
e|---------------------------|
B|---------------------------|
G|-8-8-8---6-6-6--5-5-5-5-5--|
D|-8-8-8---6-6-6--5-5-5-5-5--|
A|-6-6-6---4-4-4--3-3-3-3-3--|
E|---------------------------|
[ Tab from: http://www.guitaretab.com/m/misc-unsigned-bands/99265.html ]
Chorus: ("AAAAAARRRH, BÝrnenes skrig!")
e|--------------------------------------|
B|--------------------------------------|
G|-8-8-8-8-8-8-8-8--5-5-5-5-/8--5-5-5-5-|
D|-8-8-8-8-8-8-8-8--5-5-5-5-/8--5-5-5-5-|
A|-6-6-6-6-6-6-6-6--3-3-3-3-/6--3-3-3-3-|
E|--------------------------------------|

Solo:
e|-11-11-9-11-/13--8-8-8-8--|
B|--------------------------|
G|--------------------------|
D|--------------------------|
A|--------------------------|
E|--------------------------|

___________________________________________________

Construction of the song:

Main Riff/Verse
Chorus
Main Riff/Verse
Chorus
Solo
Chorus

___________________________________________________

Enjoy!
Related for Under Al Kritik - Boernenes Skrig tab