Song name
# A B C D E F G H I J K L M N O P Q R S T U V W X Y Z

Misc Unsigned Bands - Aaron Ross - Jack Kerouac tab

This is the label he's signed to, and this is as official his website gets...
http://grassrootsrecordco.com/artists/aaron_ross.html
he also has a myspace page @ www.myspace.com/aaronmanuelross
-----------------------------------------------------------------------------
			     Jack Kerouac – Aaron Ross
-----------------------------------------------------------------------------
Tabbed by: Nick Sklias
Email: zimzum5001@yahoo.com

Tuning: Standard

(Listen for strumming Pattern)
Intro: 
                       G                    D
e|---------------------3--------------------2------|
B|-----0---------------3------0-------------3------|
G|--2/4-4/2p0-0-0------0---2/4-4/2p0-0-0----2------|
D|-------------2-------0--------------2---0--------|
A|---------------------2---------------------------|
E|------------------3------------------------------|

                     Am                   G
e|-------------------0--------------------3--------------|
B|-----0-------------1-------0------------3--------------|
G|--2/4-4/2p0-0-0----2----2/4-4/2p0-0-0---0--------------|
D|-------------2-----2---------------2----0--------------|
A|-----------------0----------------------2--------------|
E|--------------------------------------3----------------|

Verse:
                       G                                 D
e|---------------------3---------------------------------2-----|
B|---------------------3---------------------------------3-----|
G|---------------------0---------------------------------2-----|
D|---------------------0---------------------------------0-----|
A|---------------------2---------------------------------------|
E|---------------------3---------------------------------------|
Sunken Anchors Rusted Chains…   Words are written all in vain
                             Am                          G
e|---------------------------0---------------------------3--------|
B|---------------------------1---------------------------3--------|
G|---------------------------2---------------------------0--------|
D|---------------------------2---------------------------0--------|
A|---------------------------0---------------------------2--------|
E|-------------------------------------------------------3--------|
Friend, you don’t have me to blame… I was a sinner not a saint

                     G                                      D
e|-------------------3--------------------------------------2-----|
B|-------------------3--------------------------------------3-----|
G|-------------------0--------------------------------------2-----|
D|-------------------0--------------------------------------0-----|
A|-------------------2--------------------------------------------|
E|-------------------3--------------------------------------------|
I was Lathered Up In mud… Mountains of youth filled up with cum

                         Am                              G
e|-----------------------0-------------------------------3-------|
B|-----------------------1-------------------------------3-------|
G|-----------------------2-------------------------------0-------|
D|-----------------------2-------------------------------0-------|
A|-----------------------0-------------------------------2-------|
E|-------------------------------------------------------3-------|
On the road of a beaten drum… Tonight the sun sets under one

Chorus:
          C               G           Em         C  
e|--------0---------------3-----------0----------0------------------|
B|--------1---------------3-----------0----------1------------------|
G|--------0---------------0-----------0----------0------------------|
D|--------2---------------0-----------2----------2------------------|
A|----2--3----------------2-----------2----------3------------------|
E|3-----------------------3------3-2--------------------------------|
  And If Only     I could get…   Oh one Last Cigarette

       G              Em         D
e|-----3--------------0----------2-----------------------------|
B|-----3--------------0----------3-----------------------------|
G|-----0--------------0----------2-----------------------------|
D|-----0--------------2----------0-----------------------------|
A|-----2--------------2----------------------------------------|
E|-----3--------------0----------------------------------------|
  I’d smoke it;   The way that I used to

    Cmaj/G   Gmaj        Em             C
e|------------3----------0--------------0-------------------------|
B|-----1------3----------0--------------1-------------------------|
G|-----0------4----------0--------------0-------------------------|
D|-----2------5----------2--------------2-------------------------|
A|-----3------5----------2--------------3-------------------------|
E|------------3------3-2------------------------------------------|
  When I  Was you    And you,  you were me

          Am      Cmaj/G      D
e|--------0--------0----------2---------------------|
B|--------1--------1----------3---------------------|
G|--------2--------0----------2---------------------|
D|--------2--------2----------0---------------------|
A|--------0--------3--------------------------------|
E|-----------------3--------------------------------|
  We both were… In Love… with Living

Verse:
                         G
I Threw my pearls before swine… 
                                       D
I’ll kiss their lips, I’ll drink their wine
                           Am
Trade me when the rooster crowed three times… 
                                  G
you know they ain’t no friends of mine


                            G
And I’d only die for what I believe… 
                            D
slit my throat and watch me bleed
                           Am
A’ with my words, I wear them High… 
                           G
You know I ain’t afraid to die

Chorus (x1)

Verse:
                          G
A crucifix Contained in a jar… 
                             D
Is all that’s left of who we are
                            Am
A chained in crimson clouds forgot… 
                            G
an endless sky of burnt out stars

                          G
And I remember when I was young… 
                          D
I felt alone confused and drunk
                          Am
Was never given much of a chance… 
                                   G
they stole the life right outta my hands

Chorus (x1)

Verse: 
                          G
Candles burnt down to the wick… 
                           D
picture of the time that’s left
                            Am
Life’s so short and it’s so hard… 
                                 G
‘makes you feel like you’ve been tricked

                           G
And I wish that I could go back… 
                       D
to a time when I could laugh
                          Am
Feel so beautiful I could die… 
                         G
Stay awake all night and cry

Chorus (x1)

Verse:
                      G                                D
Sunken anchors rusted chains… Words are written all in vain

                            Am                           G
Friend you don’t have me to blame… I was a sinner, not a saint


| /  slide up
| \  slide down
| h  hammer-on
| p  pull-off
| ~  vibrato
| +  harmonic
| x  Mute note
=============================================================================
Tap to rate this tab
# A B C D E F G H I J K L M N O P Q R S T U V W X Y Z