Misc Unsigned Bands - The Teenagers - Sunset Beach tab

'Sunset Beach'

by the Teenagers

www.myspace.com/theteenagers

When I met the guitarist of this great band I asked him how to play this
song, and he couldn't tell me. He says that all he plays live is the barre
chords, so I've taken the liberty of tabbing it for him and all his fans.
This song is very layered, so pick and choose your favourite parts.

Intro:

Layer 1 (0.22)

e -----------------------------------------------------------|
B -----------------------------------------------------------|
G -----------------------------------------------------------|
D -----------------------------------------------------------|
A --------------------------3-3-3-3-3-3-3-3-3-3-3-3-3-3-3-3--|
E --0--0--0--0--0--0--0--0-----------------------------------| x 3

Layer 2 (0.22)

If someone works out those wierd arrpegiated chords that start here please tell me

e -----------------------------------------------------------|
B -----------------------------------------------------------|
G -----------------------------------------------------------|
D -----------------------------------------------------------|
A -----------------------------------------------------------|
E -----------------------------------------------------------|

Layer 3 (0.36)

e -----------------------------------------------------------|
B --13--12--8--6--8-----13--12--8--6--8----------------------|
G --12--10--7--5--7-----12--10--7--5--7----------------------|
D -----------------------------------------------------------|
A -----------------------------------------------------------|
E -----------------------------------------------------------|

Layer 4 (0.51)

e -----------------------------------------------------------|
B --8--7-------8--7-------------8--7-------------------------|
G --------7----------7----------------7----------------------|
D -----------------------------------------------------------|
A -----------------------------------------------------------|
E -----------------------------------------------------------|

Chorus

Layer 1

e --8--8--8--8--10-10-10-10-5--5--5--5-----------------------|
B --6--6--6--6--8--8--8--8--3--3--3--3-----------------------|
G -----------------------------------------------------------|
D -----------------------------------------------------------|
A -----------------------------------------------------------|
E -----------------------------------------------------------| x 4

Layer 2

e -----------------------------------------------------------|
B --6--5------6--5-----------6--5----------------------------|
G --------5---------5--------------5-------------------------|
D -----------------------------------------------------------|
A -----------------------------------------------------------|
E -----------------------------------------------------------| x 4

Verse layer 1

e ----7---7---7---7---8---8---8---8---7---7---7---7---7---7---7---7---|
B --8---8---8---8---8---8---8---8---8---8---8---8---8---8---8---8-----|
G --------------------------------------------------------------------|
D --------------------------------------------------------------------|
A --------------------------------------------------------------------|
E --------------------------------------------------------------------| x 3

then:

e ---8---8---8---8---8---8---8---8----7---7---7---7---7---7---7---7---|
B -8---8---8---8---8---8---8---8----8---8---8---8---8---8---8---8-----|
G --------------------------------------------------------------------|
D --------------------------------------------------------------------|
A --------------------------------------------------------------------|
E --------------------------------------------------------------------|

e ----5---5---5---5---5---5---5---5---7---7---7---7---7---7---7---7---|
B --8---8---8---8---8---8---8---8---8---8---8---8---8---8---8---8-----|
G --------------------------------------------------------------------|
D --------------------------------------------------------------------|
A --------------------------------------------------------------------|
E --------------------------------------------------------------------|

e ----5---5---5---5---5---5---5---5---7---7---7---7---8---8---8---8---|
B --8---8---8---8---8---8---8---8---8---8---8---8---8---8---8---8-----|
G --------------------------------------------------------------------|
D --------------------------------------------------------------------|
A --------------------------------------------------------------------|
E --------------------------------------------------------------------|

layer 2

e -----------------------------------------------------------|
B ---8--7-------10----8--7-------8--7------------7---8-------|
G ---------7----------------7----------7---------------------|
D -----------------------------------------------------------|
A -----------------------------------------------------------|
E -----------------------------------------------------------|

Chorus repeat

Verse 2

Layer 1

e --8-8-8-8-8-8-8-8------------------------------------------|
B --6-6-6-6-6-6-6-6------------------------------------------|
G -----------------------------------------------------------|
D -----------------------------------------------------------|
A -----------------------------------------------------------|
E -----------------------------------------------------------| until end of song

Layer 2

Trem pick. Really hard to hear so probably wrong

e --13-15--17-18-20--18-17--13-------------------------------|
B -----------------------------------------------------------|
G -----------------------------------------------------------|
D -----------------------------------------------------------|
A -----------------------------------------------------------|
E -----------------------------------------------------------|

Implied Chords:

Intro:

Em D Am F G

Chorus

A# C Dm x2
F G Dm
F G A#

verse 1

Em C G       x4
Em D Am F G  x2

Chorus

Verse 2
F G Dm
F G A#
Tap to rate this tab
 
# A B C D E F G H I J K L M N O P Q R S T U V W X Y Z