Song name
# A B C D E F G H I J K L M N O P Q R S T U V W X Y Z

Misc Unsigned Bands - The Lunch Box Boys - Commuter Train tab

The Lunch Box Boys
Commuter Train

Tabbed by Cam Spiers (camspiers@gmail.com)

Awesome Wellington band.
Forgive me if it's wrong I have never seen Marco play it.
I think it's mostly right might just be in a different fretboard position.
This is for the original demo. Avalible at www.myspace.com/lunchboxboys

Intro.

e--------------------------------17----------------|
B-------------17-19^20-^20-20^19---19-15^17-17^15--|
G----14/16-19--------------------------------------|
D--------------------------------------------------|
A--------------------------------------------------|
E--------------------------------------------------|


e--------------------------------------------------|
B--15-12-13-12-13-12------------11/12-11/12--------|
G--------------------14-12-----------------14-12---|
D--------------------------14-14----------------14-|
A--------------------------------------------------|
E--------------------------------------------------|

					Play the 15 lots of times bending to 16
 then bending to 17
e-------------------------------------------------------------|
B--11/12-11/12--------------12-12-13-15--15-15^16-^16-^17-^17-|
G--------------14/16--12-14-----------------------------------|
D-------------------------------------------------------------|
A-------------------------------------------------------------|
E-------------------------------------------------------------|

							Fast	  Slow
e--15----------15----------17/19-17-15----17/19-17/19-17/19--17-15----17/19-17/19-17/19-|
B----19-17-15----19-17-15--------------17--------------------------17-------------------|
G---------------------------------------------------------------------------------------|
D---------------------------------------------------------------------------------------|
A---------------------------------------------------------------------------------------|


e---17/19-17/19-19-19-19-19-19\17-15-----------------------------|
B----------------------------------------------------------------|
G------------------------------------------16-16\14-12--------16-|
D------------------------------------------17-----------------17-|
A------------------------------------17h19--------------17h19----|
E----------------------------------------------------------------|

Verse.

G Major | B Major
E Minor | B Minor
A Minor | C Major
B Minor | A Minor | G Major

I haven't finished yet. But hope this helps someone.

Guitar Tablature Notation and explanation.

/   = slide up
\   = slide down
h   = hammer on
p   = pull off
X^Y = Start on fret X and bend till sounds fret Y (X is Less than Y)
Y^X = Note starts already bent to Y from X and then RELEASE bend to sound X (X is Less 
Y)
^X  = Note starts already bent from previous phrase.

Any questions to camspiers@gmail.com
Tap to rate this tab
# A B C D E F G H I J K L M N O P Q R S T U V W X Y Z