Song name
# A B C D E F G H I J K L M N O P Q R S T U V W X Y Z

Misc Unsigned Bands - Methods Of Dying - Breaking The Silence tab

                                                                
Methods of Dying
Breaking the Silence
Do not modify/redistribute.


   Intro:
                                     Q    E  Q    E  E  E   
E||-------|-------|-------|-------|------------------------|
B||-------|-------|-------|-------|------------------------|
G||-------|-------|-------|-------|------------------------|
D||-------|-------|-------|-------|--9----9--9----9--9--9--|
A||-------|-------|-------|-------|--9----9--9----9--9--9--|
D||-------|-------|-------|-------|--9----9--9----9--9--9--|


  Q    E  Q    E  E  E     Q    E  Q    E  E  E     Q    E  Q    E  E  E   
------------------------|------------------------|------------------------|
------------------------|------------------------|------------------------|
------------------------|------------------------|------------------------|
--7----7--7----7--7--7--|--7----7--7----7--7--7--|--7----7--7----7--7--7--|
--5----5--5----5--5--5--|--7----7--7----7--7--7--|--7----7--7----7--7--7--|
--5----5--5----5--5--5--|--7----7--7----7--7--7--|--7----7--7----7--7--7--|


  Q    E  Q    E  E  E      Q     E   Q     E   E   E   
------------------------|------------------------------|
------------------------|------------------------------|
------------------------|------------------------------|
--9----9--9----9--9--9--|--12----12--12----12--12--12--|
--9----9--9----9--9--9--|--12----12--12----12--12--12--|
--9----9--9----9--9--9--|--12----12--12----12--12--12--|


  Q    E  Q    E  E  E     Q    E  Q    E  E  E    
------------------------|------------------------||
------------------------|------------------------||
------------------------|------------------------||
--7----7--7----7--7--7--|--7----7--7----7--7--7--||
--7----7--7----7--7--7--|--7----7--7----7--7--7--||
--7----7--7----7--7--7--|--7----7--7----7--7--7--||



Well, thats the 2nd guitar for the whole song, ill put up a full version later. Have fun!
Tap to rate this tab
# A B C D E F G H I J K L M N O P Q R S T U V W X Y Z