Song name
# A B C D E F G H I J K L M N O P Q R S T U V W X Y Z

Misc Unsigned Bands - Breaking Circus - Ancient Axes tab

From the album "The Ice Machine"

Verse Part One

This is a piano i think, but this is a guitar site right?

------------------------------|
----6--13--11------6--13--11--|
----7--14--12------7--14--12--|
------------------------------|
------------------------------|
------------------------------|

Verse Part Two

------------------------------|
----8--15--13------8--15--13--|
----9--16--14------9--16--14--|
------------------------------|
------------------------------|
------------------------------|

Chorus

Play the first bit with a few bends

---------------------------------|
---------------------------------|
-9-9-9-9-9-9-9-9-9-9-11-11-12-12-|
---------------------------------|
---------------------------------|
---------------------------------|

Bridge type thing after the second chorus

-------------------|
-------------------|
7--5-7--7-5--5-12--|
7--5-7--7-5--5-12--|
5--3-5--5-3--3-10--|
-------------------|

Theres some other part after it aswell but at the moment i can't quite get it

Order:

Verse Part 1 x 4
Verse Part 2 x 2
Verse Part 1 x 2
Chrous       x 2
Verse Part 1 x 4
Verse Part 2 x 2
Verse Part 1 x 2
Chorus       x 2
Bridge       x 4
Chorus       x 2 (With new guitar part)
Verse Part 1 x 4 (with added guitar part)

http://en.wikipedia.org/wiki/Breaking_Circus
Tap to rate this tab
 
# A B C D E F G H I J K L M N O P Q R S T U V W X Y Z