Song name
# A B C D E F G H I J K L M N O P Q R S T U V W X Y Z

Misc Unsigned Bands - Faceless - This Life I Have tab

my band wrote this song, and i hope you like it.  x-palm mute 22-alternate
 picking, example --22-22-22-22-

intro
E----------------------------------------------------------------------------|
B----------------------------------------------------------------------------|
G----------------------------------------------------------------------------|
D-2--2-0-2--0---------------2--2-0-2--0--------------2--2-0-2--0-------------|
A-2--2-0-2--0---3-2--0--2---2--2-0-2--0---33220022---2--2-0-2--0---3-2--0--2-|
D-2--2-0-2--0---3-2--0--2---2--2-0-2--0---33220022---2--2-0-2--0---3-2--0--2-|

E---------------------------------------------------------------------------|
B---------------------------------------------------------------------------|
G---------------------------------------------------------------------------|
D-2--2-0-2--0---2-----3-----5-----0-----------------------------------------|
A-2--2-0-2--0---2-----3-----5-----0-----------------------------------------|
D-2--2-0-2--0---2-----3-----5-----0-----------------------------------------|
Tap to rate this tab
# A B C D E F G H I J K L M N O P Q R S T U V W X Y Z