Song name
# A B C D E F G H I J K L M N O P Q R S T U V W X Y Z

Misc Unsigned Bands - Happy Shrooms - Moonlit Midnight tab

Help us improve GuitareTab! Take a short survey!
capo first fret

E[--------------------------------/---------------------------------]
B[--------------------------------/---------------------------------]
G[--------------------------------/---------------------------------]
D[-------------3------------------/--------------3------------------]
A[1------------------------1------/0-------------------------0------]
E[--------------------------------/---------------------------------]

E[--------------------------------/---------------------------------]
B[--------------------------------/---------------------------------]
G[--------------------------------/---------------------------------]
D[-------------3------------------/---------------3-----------------]
A[--------------------------------/0-------------------------0------]
E[3------------------------3------/---------------------------------]

E[--------------------------------/---------------------------------]
B[--------------------------------/---------------------------------]
G[------------3-------------------/------------3--------------------]
D[--------3---------------3-------/--------3----------------3-------]
A[1---1-----------------------1---/0---0------------------------0---]
E[--------------------------------/---------------------------------]

E[--------------------------------/---------------------------------]
B[--------------------------------/---------------------------------]
G[------------3-------------------/------------3--------------------]
D[--------3---------------3-------/--------3----------------3-------]
A[--------------------------------/0---0------------------------0---]
E[3---3-----------------------3---/---------------------------------]

E[--------------------------------/---------------------------------]
B[--------------------------------/---------------------------------]
G[----------------3---------------/-----------------5---3---2---3---]
D[----3-------3-------3-------3---/----3-------3--------------------]
A[1-------1---------------1-------/0-------0------------------------]
E[--------------------------------/---------------------------------]

E[--------------------------------/---------------------------------]
B[--------------------------------/---------------------------------]
G[----------------3---------------/----------------2-------2----h3--]
D[----3-------3-------3-------3---/----3-------3-------2------------]
A[--------------------------------/0-------0------------------------]
E[3-------3---------------3-------/---------------------------------]

E[--------------------------------/---------------------------------]
B[--------------------------------/---------------------------------]
G[----------------3---------------/-----------------5---3---2---3---]
D[----3-------3-------3-------3---/----3-------3--------------------]
A[1-------1---------------1-------/0-------0------------------------]
E[--------------------------------/---------------------------------]

E[--------------------------------/---------------------------------]
B[--------------------------------/---------------------------------]
G[----------------3---------------/----------------2-------2----h3--]
D[----3-------3-------3-------3---/----3-------3-------2------------]
A[--------------------------------/0-------0------------------------]
E[3-------3---------------3-------/---------------------------------]

E[-------------]
B[-------------]
G[----3--------]
D[----3--------]
A[----1--------]
E[-------------]
Related for Happy Shrooms - Moonlit Midnight tab