Guitaretab - guitar tabs
Song name
# A B C D E F G H I J K L M N O P Q R S T U V W X Y Z

Misc Unsigned Bands - Boyce Avenue - Hear Me Now tab

Boyce Avenue  Hear Me Now
Tabbed by Alejandro Manzano of Boyce Avenue

www.myspace.com/boyceavenue

video of Boyce Avenue performing song:
http://www.youtube.com/watch?v=j9OzXjSWet0

Acoustic Guitar

Key of C#

Tuning: C# G# C# G# C# F

^ = hammer on
X = mute

Intro:
-0---0-0---0---0---0-0---0---0---0-0---0---0---0-0---0--0-|
-0^2-2-0---0---0^2-2-0---0---0^2-2-0---0---0^2-2-0---0--0-|
-0---0-0---0---0---0-0---0---0---0-0---0---0---0-0---0--0-|
-0---0-0---2---0---0-0---2---0---0-0---2---0---0-0---2--4-|
-0---0-0---2---0---0-0---2---0---0-0---2---0---0-0---2--x-|
-0---0-0---2---0---0-0---2---0---0-0---2---0---0-0---2--4-|


Verse:
-0--------0-0-0------0-------0----0--0-|
-0--------0-0-0------0-------0----0--0-|
-0--------0-0-0------0-------0----0--0-|
-0--------0-0-0------0-------0----2--4-|
-0--------0-0-0------5-------0----2--x-|
-0--------0-0-0------5-------0----2--4-|

-0--------0-0-0------0-------0----0--0-|
-0--------0-0-0------0-------0----0--0-|
-0--------0-0-0------0-------0----0--0-|
-0--------0-0-0------0-------0----0--0-|
-0--------0-0-0------5-------0----5--7-|
-0--------0-0-0------5-------0----5--7-|


Chorus:
-0----0----0----0----0----0----0----0----0-|
-0----0----0----0----0----0----0----0----0-|
-0----0----0----0----0----0----0----0----0-|
-0----0----0----0----0----0----0----0----0-|
-0----5----9----7----0----5----9----7----5-|
-0----5----9----7----0----5----9----7----5-|

[ Tab from: http://www.guitaretab.com/m/misc-unsigned-bands/99395.html ]
Turnaround:
-0---0-0---0---0---0-0---0---0---0-0---0---0---0-0---0--0-|
-0^2-2-0---0---0^2-2-0---0---0^2-2-0---0---0^2-2-0---0--0-|
-0---0-0---0---0---0-0---0---0---0-0---0---0---0-0---0--0-|
-0---0-0---2---0---0-0---2---0---0-0---2---0---0-0---2--4-|
-0---0-0---2---0---0-0---2---0---0-0---2---0---0-0---2--x-|
-0---0-0---2---0---0-0---2---0---0-0---2---0---0-0---2--4-|


Bridge:
-0----0----0----0-|
-0----0----0----0-|
-0----0----0----0-| (raked)
-0----0----0----0-|
-0----5----9----5-|
-0----5----9----5-|

-0-0-0----0-0-0----0-0-0----0-0-0-|
-0-0-0----0-0-0----0-0-0----0-0-0-|
-0-0-0----0-0-0----0-0-0----0-0-0-|
-0-0-0----0-0-0----0-0-0----0-0-0-|
-0-0-0----5-5-5----9-9-9----5-5-5-|
-0-0-0----5-5-5----9-9-9----5-5-5-|

---------------0-0-0-0-0--0-0-|
---------------0-0-0-0-0--0-0-|
-------0-0-0-0-0-0-0-0-0--0-0-| (slight palm mute crescendo)
-------0-0-0-0-0-0-0-0-0--0-0-|
-5-5-5-5-5-5-5-5-5-5-5-5--5-7-|
-5-5-5-5-5-5-5-5-5-5-5-5--5-7-|

Outro:
-0---0-0---0---0---0-0---0---0---0-0---0---0---0-0---0--0-|
-0^2-2-0---0---0^2-2-0---0---0^2-2-0---0---0^2-2-0---0--0-|
-0---0-0---0---0---0-0---0---0---0-0---0---0---0-0---0--0-|
-0---0-0---2---0---0-0---2---0---0-0---2---0---0-0---2--4-|
-0---0-0---2---0---0-0---2---0---0-0---2---0---0-0---2--x-|
-0---0-0---2---0---0-0---2---0---0-0---2---0---0-0---2--4-|

-0---0-0---0---0---0-0---0---0---0-0---0---0---0-0---0--0--0-|
-0^2-2-0---0---0^2-2-0---0---0^2-2-0---0---0^2-2-0---0--0--0-|
-0---0-0---0---0---0-0---0---0---0-0---0---0---0-0---0--0--0-|
-0---0-0---2---0---0-0---2---0---0-0---2---0---0-0---2--4--0-|
-0---0-0---2---0---0-0---2---0---0-0---2---0---0-0---2--x--0-|
-0---0-0---2---0---0-0---2---0---0-0---2---0---0-0---2--4--0-|
Related for Boyce Avenue - Hear Me Now tab