Song name
# A B C D E F G H I J K L M N O P Q R S T U V W X Y Z

Misc Unsigned Bands - Ineedtodiscover - Mixandmatch tab

http://www.myspace.com/ineedtodiscover

whole song needs listening to for timing

intro/main riff

e-----------------------------------------------------|
b-----------------------------------------------------|
g-----------------------------------------------------|
d--------9----7-7-------------9----7-7----------------|
a-7-7-10--10------9-10--7-7-10-10------10-9-----------|
e-----------------------------------------------------|

verse

e-----------------------------------------------------|
b-----------------------------------------------------|
g--9-9>11>12--12>14>16--16>14>12-11-12----------------|
d-----------------------------------------------------|
a--7-7>9>-10--10>12>14--14>12>10-9--10----------------|
e-----------------------------------------------------|

just vary the verse for rest of song
Tap to rate this tab
 
# A B C D E F G H I J K L M N O P Q R S T U V W X Y Z